• Streaming gitaar liedjes spelen
  • Leer gitaar spelen & gitaarlessen
  • 80.000 leden
e-----------------------------------------------------------|
B-----------------------------------------------------------|
G-----------------------------------------------------------|
D-0--0-0--0-0--0-0-0-0-0--0-0--0-0--0-0-0-0-0--0-0--0-0--0-0|
A-----------------------------------------------------------|
E-----------------------------------------------------------|

e-----------------------------------------------------------|
B-----------------------------------------------------------|
G-----------------------0-----------------------------------|
D-----0--0--0-2-3--3--3---2--2--0-----0---------------------|
A-0-3-----------------------------3-3-----------------------|
E-----------------------------------------------------------|

e-----------------------------------------------------------|
B-----------------------------------------------------------|
G-----------------------0-----------------------------------|
>> Registreer, speel & download <<
Meld nu aan en speel de rest van Pirates Of The Caribbean - He's A Pirate

>> Registreer, speel & download <<
D-----0--0--0-2-3--3--3---2--2--0---0-----------------------|
A-0-3-----------------------------3-------------------------|
E-----------------------------------------------------------|

e-----------------------------------------------------------|
B-----------------------------------------------------------|
G---------------0--0--0-2-3--3--2-0-2-----------------------|
D-----0--0--0-3-----------------------0---------------------|
A-0-3-------------------------------------------------------|
E-----------------------------------------------------------|

e-----------------------------------------------------------|
B-----------------------------------------------------------|
G-----------------------------------------------------------|
D-0-2-3--3--5--7-0--0-3-2-0---0-----------------------------|
A---------------------------3-------------------------------|
E-----------------------------------------------------------|

More info

Comments Pirates Of The Caribbean - He's A Pirate - tab

darm87

Darm87 2013-01-08

ikga proberennn :)


darm87

Darm87 2013-01-02

Super leuk! Ik ken hem nu uit mijn hoofd, en het is echt super makkelijk, haha. x


ctjuh

Ctjuh 2012-04-24

Y NO POST WHOLE SONG? verder wel leuk en makkelijk trouwens :)


darm87

Darm87 2012-03-28

ik snap niet hoe je deze moet spelen weetje


darm87

Darm87 2011-11-15

ik hou hiervan!!! kan niet stoppen met spelen!!!!!!!!!!!!!!!!!!!!!!!


darm87

Darm87 2011-08-17

Dit liedje is echt SUPER leuk! Het is wel moeilijk om het zo snel te spelen!


darm87

Darm87 2011-06-01

getallen zijn zgn frets die je aanslaat, dus de plek op de hals van de gitaar waar je je vinger neerzet


darm87

Darm87 2011-04-26

wat betekenen die 0,2,3 elke x?


darm87

Darm87 2011-03-13

hij staat ondersteboven


marco9393

Marco9393 2011-02-28

volgens mij klopt de laatste stukje niet helemaal/


illandjan

Illandjan 2010-12-27

kun je de op 2 na laatste 0 niet beter op de g-snaar spelen?

doe ik wel Xd


Lottettjee

Lottettjee 2010-10-24

Super gaaf ik ben net begonnen en het lukt in 1 x xd


Raoul2000

Raoul2000 2010-10-05

zijn er ook youtube video's??


bloodft

Bloodft 2010-07-07

cker lauw