• Streaming gitaar liedjes spelen
  • Leer gitaar spelen & gitaarlessen
  • 75.000 leden
Intro, verses and chorus: 

    Em                        Cmaj7
 e |---------------------------------------------------|
 B |-----0-----0-----0-----0------0-----0-----0-----0--|
 G |---0-----0-----0-----0------0-----0-----0-----0----|
 D |---------------------------------------------------|
 A |--------------------------3-----3-----3-----3------|
 E |-0-----0-----0-----0-------------------------------|

    A                         G6          F#
 e |---------------------------------------------------|
 B |-----0-----0-----0-----0------0-----0-----0-----0--|
 G |---0-----0-----0-----0------0-----0-----0-----0----|
 D |---------------------------------------------------|
 A |-0-----0-----0-----0-------------------------------|
 E |--------------------------3-----3-----2-----2------|

Open chords:

Em    = 022000
Cmaj7 = x32000
A     = x02000
G6    = 320000
F#    = 200200


Intro:  Em   Cmaj7   A    G6    F#

Verse 1:

Em                     Cmaj7
   C'est le malaise du moment 
                   A
   L'épidémie qui s'étend 
                         G6
   La fęte est finie on descend 
          F#                  Em 
   Les pensé
De rest van dit nummer alleen voor Gitaartabs leden! Maak gratis Gitaartabs account aan . 
Gitaar Tabs

Download, print en speel de Tab ♪ Placebo - Protege-moi

Meld je aan en print, download of speel binnen 15 sec mee Tab ♫ Placebo - Protege-moi.
Reeds 70.000 gitaristen zijn je voorgegaan.

Gratis Aanmelden Gitaartabs