• Streaming gitaar liedjes spelen
  • Leer gitaar spelen & gitaarlessen
  • 80.000 leden
Intro bass (gitaar kan ook)
|------------------------------|-------------------------------|
|------------------------------|-------------------------------|
|------------------------------|-------------------------------|
|------------------------------|-------------------------------|
|------------------------------|-------------------------------|
|-5-3-0--0--0-----0-0-0--3-0-5-|-5-3-0--0--0-----0-0-0--3-0-5--|

|-------------------------|-------------------------|
|-------------------------|-------------------------|
|-------------------0---2-|-------------------0---2-|
|-2--2--2-----2-2-2---2---|-2--2--2-----2-2-2---2---|
|-------------------------|-------------------------|
|-------------------------|-------------------------|


|---------------------------------|------------------------------------|
|---------------------------------|------------------------------------|
|---------------------------------|------------------------------------|
|------------5--------------------|------------5-----------------------|
|-3-3--3-4-5--------3-3--3-4-5----|-3-3--3-4-5-------0-0--0-0-2----0---|
|---------------3---------------3-|---------------3------------------0-|


|------------------------------
>> Registreer, speel & download <<
Meld nu aan en speel de rest van Queen - Another One Bites The Dust

>> Registreer, speel & download <<
----|
|----------------------------------|
|----------------------------------|
|----------------------------------|
|---------0-0-0--------0---2---0---|
|-2---2-2--------2-2-2---2-------0-|

|----------------------------------|
|----------------------------------|
|---------------------------7------|
|---------------------------5--5-2-|
|---------------------------5--5-2-|
|------------------------------3-0-|


  Em                              C6
|-7-x-x-7-x-x-7-7-7-7--7-7-7-7-x----------------|
|-8-x-x-8-x-x-8-8-8-8--8-8-8-8-x--10-x-10--9/10-|
|-9-x-x-9-x-x-9-9-9-9--9-9-9-9-x--9--x-9---8/9--|
|-9-x-x-9-x-x-9-9-9-9--9-9-9-9-x--10-x-10--9/10-|
|-----------------------------------------------|
|-----------------------------------------------|


|---------------------------------|------------------------------------|
|---------------------------------|------------------------------------|
|---------------------------------|------------------------------------|
|------------5--------------------|------------5-----------------------|
|-3-3--3-4-5--------3-3--3-4-5----|-3-3--3-4-5-------0-0--0-0-2----0---|
|---------------3---------------3-|---------------3------------------0-|

Veel succes :)

More info