• Streaming gitaar liedjes spelen
  • Leer gitaar spelen & gitaarlessen
  • 75.000 leden
Stemming: Eb-Ab-Db-Gb-Bb-eb

p - Pull Off




Racoon - Love You More




Intro: 
e|-------0-------0-------0-------|-----------------------------|
B|---3-------3-------3-------3---|-3p2----------2--------------|
G|-----2-------2-------2---------|-------2-------------2-------|
D|-------------------------------|-----2----2------2-----2-----|
A|-2-----2-------2-------2-------|-0----------0------0-----0---|
E|-------------------------------|-----------------------------|
  “Bm7add4”                        “A”
e|-------0-------0-------0---2---|-----------------------------|
B|---3-------3-------3-----------|-3p2-------------------------|
G|-----2-------2-------2---------|------2-------4-------2------|
D|-------------------------------|----------2-------2-------2--|
A|-2-----2-------2-------2-------|-0--------0-----0-----0------|
E|-------------------------------|-----------------------------|

Couplet:
  “Bm7add4”                        “A”
e|-------0-------0-------0-------|-----------------------------|
B|---3-------3-------3-------3---|-3p2-----------2-------------|
G|-----2-------2-------2---------|-------2----------2-------2--|
D|-------------------------------|-----------2-----------2-----|
A|-2-----2-------2-------2-------|-0---------0------0----0-----|
E|-------------------------------|-----------------------------|
  “Bm7add4”                        “A”
e|-------0-------0-------0---2---|-----------------------------|
B|---3-------3-------3-----------|-3p2-------------------------|
G|-----2-------2-------2---------|------2-------4-------2------|
D|-------------------------------|----------2-------2-------2--|
A|-2-----2-------2-------2-------|-0--------0-----0-----0------|
E|-------------------------------|-----------------------------|
  “Bm7add4”                        “A”
e|-------0-------0-------0-------|-----------------------------|
B|---3-------3-------3-------3---|-3p2-----------2-------------|
G|-----2-------2-------2---------|-------2----------2-------2--|
D|-------------------------------|-----------2-----------2-----|
A|-2-----2-------2-------2-------|-0---------0------0----0-----|
E|-------------------------------|-----------------------------|
  “Bm7add4”                        “A”
e|-------0-------0-------0---2---|----------------------5------|
B|---3-------3-------3-----------|-3p2----------5-----------5--|
G|-----2-------2-------2---------|------2-----------2----------|
D|-------------------------------|----------2------------------|
A|-2-----2-------2-------2-------|-0--------0-----0-----0------|
E|-------------------------------|-----------------------------|

 Bm7add4                 A
Clouds above go sailing by
Bm7add4                     A
I found my meaning in this life
 Bm7add4                     A
clear white is flying in my eyes,
                         Bm7add4
underneath a blue, blue sky
                       A
The waves come rolling in with the tide.

Refrein:
 “Em7”        “D”          “A”
e|---3---3----3p2---------|------------------------------------|
B|---3---3----3----3------|-3p2----------2---------------------|
G|---0---0----2------2----|-------2----------2--------2--------|
D|-2-2-2-2----0-----------|----------2-----------2-------------|
A|-2----------------------|-0--------0-----0-----0-------------|
E|-0----------------------|------------------------------------|
 “Em7”        “D”          “A”
e|---3---3----3p2---------|-------------------------5----------|
B|---3---3----3----3------|-2-------3-------5------------------|
G|---0---0----2------2----|-----2-------2-------2--------------|
D|-2-2-2-2----0-----------|------------------------------------|
A|-2----------------------|-0----------------------------------|
E|-0----------------------|------------------------------------|
  “Em7”      “D”           “A”
e|---3---3----3p2---------|------------------------------------|
B|---3---3----3----3------|-3p2----------2---------------------|
G|---0---0----2------2----|-------2----------2--------2--------|
D|-2-2-2-2----0-----------|----------2-----------2-------------|
A|-2----------------------|-0--------0-----0-----0-------------|
E|-0----------------------|------------------------------------|
   “G(5)”:     “Dadd9”       “A”
e|-
De rest van dit nummer alleen voor Gitaartabs leden! Maak gratis Gitaartabs account aan . 
Gitaar Tabs

Download, print en speel de Tab ♪ Racoon - Love You More

Meld je aan en print, download of speel binnen 15 sec mee Tab ♫ Racoon - Love You More.
Reeds 70.000 gitaristen zijn je voorgegaan.

Gratis Aanmelden Gitaartabs

Wat vind jij van deze song? Racoon - Love You More


Comments Racoon - Love You More - tab

darm87

Darm87 2011-05-11

hallo allemaal ik zou graag willen weten wat er telkens boven de balk met snaren staat en bij refrein staat 3p2 op e snaar wat is dit ook staat hier vaak een kruisje ook dat weet ik niet. Ik ben pas bezig met spelen en heb dus nog geen ervaring gaarne antwoord dank jullie N


Lisaapje

Lisaapje 2011-04-14

Ja hij is echt goed, bedankt!


koen160ibanez

Koen160ibanez 2009-08-27

en ik ben weer slecht in de akoorden,

Fantastisch nummer ;)

Goed gedaan, Mijn Complimenten


Manon33

Manon33 2008-11-10


ik

Ik 2008-11-07

Kei mooi liedje en vindt hem echt goed gevonden met die akkoorden had ik niet gekunt ik ga het zeker probere dankjewle

ikke


Tess

Tess 2008-09-27

Een prachtige tab vind het zeer knap als je dit op gehoor weet uit te zoeken kan zelf ook wel wat op gehoor maar dit gaat me toch boven mijn pet.
heb wel een vraagje bij het intro en dan bij de eerste A staat op het eind
d 2 a 0 g 2 d 2 a 0 (weet niet hoe ik dat anders op moet schrijven) maar kan het ook zijn dat het is a 0 d 2 g 2 d 2 a 0 bijna hetzelfde alleen de volgorde van de d en de a snaar omdraait want dan klinkt het tokkeltje veel beter.hoor het graag als ik het fout heb anders leer ik het mij verkeerd aan.

groetjes eric.


Tess

Tess 2008-02-05

Ik kon geen wijs uit de tabs!
Maar de akkoorden zijn goed!!
en dan is ie ook mooi om te spelen (A) =D


Plaats opmerkingen e.o. suggestie voor Racoon - Love You More