• Streaming gitaar liedjes spelen
  • Leer gitaar spelen & gitaarlessen
  • 80.000 leden
bombtrack by rage against the machine
110 bps	  p.m(palm mute)
e|-------------------------------------------------------------------|
B|-------------------------------------------------------------------|
G|------------------------------0------------------------------------|
D|----2-0---0---------2-0---0-2-------2-0---0---------2-0---0--------|
A|--------2---2-0---------2---------------2---2-0---------2---2------|
E|--0-------------3-0---------------0-------------3-0-----------3-2--|

e|-----------------------------------------------------------------------|
B|-----------------------------------------------------------------------|
G|------------------------------0h2p0------------------------------------|
D|----2-0---0---------2-0---0-2-----------2-0---0---------2-0---0--------|
A|--------2---2-0---------2-------------------2---2-0---------2---2------|
E|--0-------------3-0-------------------0-------------3-0-----------3-2--|

:25
e|----------------------------------------------------|
B|----------------------------------------------------| x3
G|-------------------------------------------6--5--4--|
D|--------4------------4--2--------4---------6--5--4--|
A|-------------------------------------------4--3--2--|
E|--0--2-----0-2--0-2--------0--2-----0-2--0-4--3--2--|

e|-----------------------------------------------------|
B|-----------------------------------------------------|let the last
G|-------------------------------------------6---------|chord ring
D|--------4------------4--2--------4---------6---------|
A|-------------------------------------------4---------|
E|--0--2-----0-2--0-2--------0--2-----0-2--0-4---------|

:53
e|---------------------------------------------------------|
B|---------------------------------------------------------|x2
G|---------------------------------------------------------|
D|------------------------------------------4-2------------|
A|----------------------------------------------4-3-2------|
E|----2--2--0--2-2--2--2--5b---2--2--0--2-0-----------5----|

e|------------------------------------------------------------|
B|------------------------------------------------------------|
G|------------------------------------------------------------|
D|-------------------------------------------16-14------------|
A|-------------------------------------------------16-15-14---|
E|----2--2--0--2-2--2--2--5b---2--2--0--2-0-----------------16|

e|------------------------------------------------------------|
B|------------------------------------------------------------|
G|------------------------------------------------------------|either just
D|------------------------------------------------------------|palm mute there
A|--------------------------------------------xxxxx-----------|or dont do anything
E|----2--2--0--2-2--2--2--5b---2--2--0--2-0---xxxxx-----------|

e|------------------------------------------------------------|
B|------------------------------------------------------------|x2
G|------------------------------------------------------------|
D|-------------------------------------------4-2--------------|
A|-----------------------------------------------4-3-2--------|
E|----2--2--0--2-2--2--2--5b---2--2--0--2-0------------5------|

e|------------------------------------------------------------|
B|------------------------------------------------------------|
G|------------------------------------------------------------|
D|-------------------------------------------16-14------------|
A|-------------------------------------------------16-15-14---|
E|----2--2--0--2-2--2--2--5b---2--2--0--2-0-----------------16|

e|------------------------------------------------------------|
B|------------------------------------------------------------|
G|------------------------------------------------------------|either just
D|------------------------------------------------------------|palm mute there
A|--------------------------------------------xxxxx-----------|or dont do anything
E|----2--2--0--2-2--2--2--5b---2--2--0--2-0---xxxxx-----------|

(1:45)
e|----------------------------------------------------|
B|----------------------------------------------------|x3
G|-------------------------------------------6--5--4--|
D|--------4------------4--2--------4---------6--5--4--|
A|-------------------------------------------4--3--2--|
E|--0--2-----0-2--0-2--------0--2-----0-2--0-4--3--2--|

e|-----------------------------------------------------|
B|-----------------------------------------------------|let last chord ring
G|-------------------------------------------6---------|
D|--------4------------4--2--------4---------6---------|
A|-------------------------------------------4---------|
E|--0--2-----0-2--0-2--------0--2-----0-2--0-4---------|

2:12
e|---------------------------------------------------------|
B|---------------------------------------------------------|x2
G|---------------------------------------------------------|
D|------------------------------------------4-2------------|
A|----------------------------------------------4-3-2------|
E|----2--2--0--2-2--2--2--5b---2--2-
>> Registreer, speel & download <<
Meld nu aan en speel de rest van Rage Against The Machine - Bombtrack

>> Registreer, speel & download <<
-0--2-0-----------5----|

e|------------------------------------------------------------|
B|------------------------------------------------------------|
G|------------------------------------------------------------|
D|-------------------------------------------16-14------------|
A|-------------------------------------------------16-15-14---|
E|----2--2--0--2-2--2--2--5b---2--2--0--2-0-----------------16|

e|------------------------------------------------------------|
B|------------------------------------------------------------|
G|------------------------------------------------------------|
D|------------------------------------------------------------|ither dive
A|-------------------------------------------------2b---------|the whammy bar
E|----2--2--0--2-2--2--2--5b---2--2--0--2-0-------------------|or just bend it

(2:37)
e|----------------------------------------------------|
B|----------------------------------------------------|x4
G|-------------------------------------------6--5--4--|
D|--------4------------4--2--------4---------6--5--4--|
A|-------------------------------------------4--3--2--|
E|--0--2-----0-2--0-2--------0--2-----0-2--0-4--3--2--|

3:03
e|-------------------------------|palm mute all this
B|-------------------------------|
G|-------------------------------|
D|--5555555555555599999171717----|
A|--3333333333333377777151515----|
E|-------------------------------|


3:09 ok i will show 2 ways of playing this part of the song.
the second way is from the tab books,to let you know the tab books
are not from tom...tom dident make these tab books...b
e|------------------------------------------------------------------|
B|------------------------------------------------------------------|x2
G|-------------------------x-x-x-x----------------------------------|
D|-------------------------x-x-x-x----------------------------------|<--1st
A|-------------------------x-x-x-x---------------------4p0-3p0-2p0--|way
E|--2-0-2-0-5b--2-0-2-0-2----------2-0-2-0-5b--2-0-2-0--------------|

e|------------------------------------------------------------------|
B|------------------------------------------------------------------|x2
G|-------------------------x-x-x-x----------------------------------|
D|-------------------------x-x-x-x----------------------------------|<--
A|-------------------------x-x-x-x---------------------4p0-3p0-2p0--|2nd way
E|--2p0-2p0-5b--2p0-2p0-2----------2p0-2p0-5b--2p0-2p0--------------|
sounds best
3:21
e|---------------------------------------------------------------|
B|-----------16--------------------------16-14--17b-17b-17b-17b--|
G|--x-14---x-16---x-14---x-16---x-14---x-16----------------------|
D|--x-14---x-16---x-14---x-16---x-14---x-16----------------------|
A|---------------------------------------------------------------|
E|---------------------------------------------------------------|

e|--------------------------------14-17-16-17-16b-17b--------|
B|-----------16----------------------------------------------|
G|--x-14---x-16---x-14---x-16--------------------------------|
D|--x-14---x-16---x-14---x-16--------------------------------|
A|-----------------------------------------------------------|
E|-----------------------------------------------------------|

e|----------------------------------------------------|
B|----------------------------------------------------|x2
G|-------------------------------------------6--5--4--|
D|--------4------------4--2--------4---------6--5--4--|
A|-------------------------------------------4--3--2--|
E|--0--2-----0-2--0-2--------0--2-----0-2--0-4--3--2--|


3:32)

e|----------------------------------------------------------------------|
B|-17--17--17--17-------------------------------------------------------|
G|-16--16--16--16-------------------------------------------------------|
D|----------------------------------------------------------------------|
A|--------------------------------xxxxxxxxxxxxxxxxxxxxxxxxxx------------|
E|--------------------------------xxxxxxxxxxxxxxxxxxxxxxxxxx------------|
     Rub strings up and down slow while using the killswitch

e|-------------------------------------------------------------------------|
B|-------------------------------------------------------------------------|
G|-14-14-14----14-14-14----14-14-14----14-14-14----14-14-14----14-14-14----|
D|----------16----------16----------16----------16----------16----------16-|
A|-------------------------------------------------------------------------|
E|-------------------------------------------------------------------------|

chrous                                         x4
e|---------------------------------------------------------------|
B|---------------------------------------------------------------|
G|-------------------------------------------6--5--4----4-3-2----|
D|--------4------------4--2--------4---------6--5--4----4-3-2----|
A|-------------------------------------------4--3--2----2-1-0----|
E|--0--2-----0-2--0-2--------0--2-----0-2--0-4--3--2----2-1-0----|
                                             do this part slower

More info