• Streaming gitaar liedjes spelen
  • Leer gitaar spelen & gitaarlessen
  • 75.000 leden
Rage Against the machine - Killing in the name of

Volgorde van het nummer

INTRO
VERSE
BRIDGE
PRE CHORUS
CHORUS
VERSE (with fill)
BRIDGE
PRE CHORUS
CHORUS
SOLO
BUILD UP
CHORUS
OUTRO

INTRO
E|----------------------|
B|----------------------|
G|----------------------|
D|-0-----0-----0-----0--|
A|-0-----0-----0-----0--|
D|-0-----0-----0-----0--|

then bass, then

E|-------------------|
B|-------------------|
G|-------------11-12-|
D|-------11-12-------| 
A|-------------------|
D|-0-0-0-------------|

every third time

E|----------------------|
B|----------------------|
G|-------------12b14r12-|
D|-------11-12----------|  
A|----------------------|
D|-0-0-0----------------|

E|-------------|----|
B|-------------|----|
G|-------------|----|
D|-------------|----|
A|-------6-6-6-|-6*-|
D|-0-0-0-------|----|
                end

VERSE 			       ( fill )
E|-------------------------||------------------------------|
B|-------------------------||--------------------------6~--|
G|-------------------------||--------------------5-6-7-----|
D|-----------3/4-----------||----------3/4-5-6-7-----------|
A|-0-3h5-x-x-----5-0-2h3p2-||-0-3h5-x-x--------------------|
D|-0---------------0-2h3p2-||-0----------------------------|

PM for vocals

BRIDGE
E|-----------------------------------------------
De rest van dit nummer alleen voor Gitaartabs leden! Maak gratis Gitaartabs account aan . 
Gitaar Tabs

Download, print en speel de Tab ♪ Rage Against The Machine - Killing In The Name Of (gitaar Tab)

Meld je aan en print, download of speel binnen 15 sec mee Tab ♫ Rage Against The Machine - Killing In The Name Of (gitaar Tab).
Reeds 70.000 gitaristen zijn je voorgegaan.

Gratis Aanmelden Gitaartabs

Artiesten

Rage Against The Machine

Song information

Naam: Killing In The Name Of (gitaar Tab)
Album:
Notatie: Tab (TAB)
Category: Punk
Niveau: 2/10

Statistiek

Downloads: 5.412
Commentaren: 3 Comments

Credits

Geplaat door: 110823
Geschreven door: Gitaartabs
Datum: 2011-10-24

Comments Rage Against The Machine - Killing In The Name Of (gitaar Tab) - tab

JanH

JanH 2018-08-24



darm87

Darm87 2011-11-11

wil je effe de tekst toevoegen? verder wel mooi tabje! dankje


kenworth

Kenworth 2011-10-26

Ik mis de tekst, wil je deze nog toevoegen?
Dan is de tab geheel compleet,  toppie alvast bedankt.