• Streaming gitaar liedjes spelen
  • Leer gitaar spelen & gitaarlessen
  • 75.000 leden
Nog 10 tab te gaan voor deze maand.
Hallo leuk dat je me tab bezoekt,

Ik ga je nu uitleggen hoe je californication moet spelen.
Het is een vrij makkelijke en mooie song maar toch heeft het wat aandachtspuntjes nodig.
Vooral de solo is vrij lastig.
Ik ben ook niet 100 % zeker van de tab tekens omdat ik nou eenmaal niet een profesionele tabmaker ben.
Ik probeer het gewoon zo goed mogelijk aan je uit te leggen.
Oke we gaan naar het eerste deel.
Het eerste deel is vrij simpel.
Het bestaan eigenlijk uit een A mineur.
Het 2de akoord weet ik eigenlijk niet maar het komt op hetzelfde neer.
Dus speel beide stukken met de greep die je bij een A mineur zo doen!

Intro:


E |----------------------------------------|
B |-------0-1----------------------------|
G |----2------------------0-2-----------|
D |--2------------------3----------------|
A |--------------------3------------------|
E |----------------------------------------|

Simpel he?
Dit versprijd zich eigenlijk over een paar delen van het nummer.
Nadat je de intro een paar keer heb herhaald komt het volgende stuk:


E |---------------------------3----1-------|
B |------1---------1------3------3-------|
G |--------------2-----------------2-------|
D |----2------3----------------------------|
A |--3------3---------2-------------------|
E |-------------------3---------------------

Als je goed kijkt zie je dat dit stukje uit 4 akoorden bestaat.
Je pakt ze dus ook met de volgende grepen:

| C | F | G | Dm |

Aan het eind zie je dus die cijfertjes onder elkaar.
Strijk dit dus aan als een Dm akoord.

Na dit stuk herhaalt zich de intro weer en daarna dit stuk dus weer.
Daarna gaan we dus over naar de akoorden die je speelt.
Ik ben er niet zo zeker van of het helemaal goed is maar het klinkt wel goed.
Ik speel hem namelijk met een Am en een E is
De rest van dit nummer alleen voor Gitaartabs leden! Maak gratis Gitaartabs account aan . 
Gitaar Tabs

Download, print en speel de Tab ♪ Red Hot Chili Peppers - Californication Tab

Meld je aan en print, download of speel binnen 15 sec mee Tab ♫ Red Hot Chili Peppers - Californication Tab.
Reeds 70.000 gitaristen zijn je voorgegaan.

Gratis Aanmelden Gitaartabs

Wat vind jij van deze song? Red Hot Chili Peppers - Californication Tab

Comments Red Hot Chili Peppers - Californication Tab - tab

JadeDiablo

JadeDiablo 2010-05-07

------------------------------------------------
De intro mist een stukje:

-------0--1-------------------------------------
-------------------------------0--2-------------
----2--------2-0-2^0-----------------0----------
--0-------------------3-----3-----------3-------
-------------------------1----------------------

 

 


JadeDiablo

JadeDiablo 2010-05-07

------------------------------------------------
-------0--1-------------------------------------
-------------------------------0--2-------------
----2--------2-0-2^0-----------------0----------
--0-------------------3-----3-----------3-------
-------------------------1----------------------

lol, die bovenste streepjes horen onder de tekst:

zo dus.

 


Kazzz

Kazzz 2010-03-21

ik ben het toch echt eens met jim, en anders vind ik het gewoon de leukste versie


Mrindoohh

Mrindoohh 2008-09-08

Ik ben het eens met gitaarfreak speel het maar is door en luister goed naar de solo zelf!


jim

Jim 2008-09-06

ik denk dat deze het best is:



*** Red Hot Chilli Peppers - Californication ***

--- Intro 2X Alleen ---
e -----------------------|--------------------|
B ------0-1--------------|--------------------|
G --2--------------------|------0-2-----------|
D ----2------(0)-2-0-----|--------0------0----|
A --0----------------3---|----3------------3--|
E -----------------------|--1-----------------|

--- Intro 2X ---

--- Intro 2X Met: ---
Psychic spies from China Try to steal your mind's elation
Little girls from Sweden Dream of silver screen quotations

--- Intro B ---
C G Dm F
e ------------------------------------------1-------------1----
B -----1-----------------------------------3-------------1-----
G ----0----------------------0------------2-------------2------
D ---2----------------------0------------0-------------3-------
A --3----------------------2-----------------------------------
E ------------------------3------------------------------------
And if you want these kind of dreams It's Californication

--- Intro 2X ---

--- Intro 2X Met: ---
It's the edge of the world And all of western civilization
The sun may rise in the East At least it settles in the final location

--- Intro B ---
It's understood that Hollywood sells Californication

--- Refrein B 2X ---

Am F
e --0-----------1---
B --1-----------1---
G --2-----------2---
D --2-----------3---
A --0----------(1)--
E -------------(1)--

--- Refrein B Met: ---

Pay your surgeon very well To break the spell of aging
Celebrity skin is this your chin Or is that war your waging

--- Refrein A ---

Am F
First born unicorn
Am F
Hard core soft porn

C G Dm Am
Dream of Californication

C G Dm Am
Dream of Californication

--- Intro 2X ---

--- Intro 2X Met: ---
Marry me girl be my fairy to the world Be my very own constellation
A teenage bride met a baby inside Getting high on information

--- Intro B ---
And buy me a star on the boulevard It's Californication

--- Intro 2X ---

--- Intro 2X Met: ---
Space may be the final frontier But it's made in a Hollywood basement
Cobain can you hear the spheres Singing songs off station to station

--- Intro B ---
And Alderaan's not far away It's Californication

--- Refrein B 2X ---

--- Refrein B Met: ---
Born and raised by those who praise Control of population
everybody's been there and I don't mean on vacation

--- Refrein A ---
Am F
First born unicorn
Hard core soft porn

C G Dm Am
Dream of Californication
Dream of Californication
Dream of Californication
Dream of Californication

--- SOLO ---
e-|------9-----------------------9--------------------------------------------|
B-|-10---------7/9--7-------10---------7b(9)7-------7-7-7h5--------------5----|
G-|---------------------------------------------------------6--------4-6------|
D-|---------------------------------------------------------------------------|
A-|---------------------------------------------------------------------------|
E-|---------------------------------------------------------------------------|

e-|------------------------------9----12----14------------9-----12--/16--14---|
B-|-7b(Coolr7--5--------------10------------------------10----------------------|
G-|-------------6-------------------------------------------------------------|
D-|---------------------------------------------------------------------------|
A-|---------------------------------------------------------------------------|
E-|---------------------------------------------------------------------------|

e-|-17--16--14--12--14--12-----12--------------------------------12--------12-|
B-|------------------------14-----14----12/14----12/14----12/14------12/14----|
G-|---------------------------------------------------------------------------|
D-|---------------------------------------------------------------------------|
A-|---------------------------------------------------------------------------|
E-|---------------------------------------------------------------------------|

e-|-16-14-12----12------------------12---------------------|
B-|----------14------14---12--------------15---14----------|
G-|----------------------------14-------------------14-----|
D-|-------------------------------------------------/------|
A-|------------------------------------------------/-------|
E-|-----------------------------------------------/--------|
On this note begin to replay the intro part _/


TAB > --12/14---- = slide --14p12---- = pull-off
--7b(9)---- = bend whole step --12h14---- = hammer
--7b(Coolr7-- = bend half step and release

--- Intro 2X ---

--- Intro 2X Met: ---
Destruction leads to a very rough road But it also breeds creation
And earthquakes are to a girl's guitar They're just another good vibration

--- Intro B ---
And tidal waves couldn't save the world From Californication

--- Refrein B 2X ---

--- Refrein B Met: ---
Pay your surgeon very well To break the spell of aging
Sicker than the rest There is no test But this is what you're craving

--- Refrein A ---
Am F
First born unicorn
Hard core soft porn

C G Dm Am
Dream of Californication
Dream of Californication
Dream of Californication
Dream of Californication


red hot chili peppers

Red hot chili peppers 2008-08-14

weet iemand de slag Verbaasd
in ieder geval bedankt Grijns


victorio19

Victorio19 2008-05-17

hoi ik heb een vraag ik probeer de hele tijd een tab aantemaken maar als ik hem verstuur dan word het scherm wit als ik dan ga zoeken of mijn tab eropstaat staat hij er niet hoe kan je nou precies een tab aanmaken


Kamin

Kamin 2008-05-09

Die accoorden in het begin waar Am en dan E? of F staat is: Am Fmaj7.
Dat is een F met een losse hoge e-snaar. Ze pakken dat accoord door de duim over de eerste fret van de lage E snaar te leggen:
---0
---1
---2
---3
---3
---1


michaelmanni

Michaelmanni 2008-04-22

ik snap het niet helemaal ik denk dat het komt omdat ik 11 ben maar als iemand mij het duidelijk kan uitleggen pleas zeg het me. <(*_*)> Verbaasd Verbaasd


michaelmanni

Michaelmanni 2008-04-22

oohja de reden dat ik het niet snap is ook omdat ik les heb ik leer echt
akkoorden en noten als iemand het op die manier kan vertellen
kan ik het goed gebruiken Grijns Grijns Grijns


joshuadj

Joshuadj 2008-03-08

volges mij is het refrijn [C][F]{[G][D]


JanH

JanH 2008-01-20

Zelf heb ik hem nog niet geprobeerd maar:
1. ieder heeft zijn eigen interpretatie hoe hij/zij een nummer speelt dus tja kan zijn. Oja zijn er geen meerdere versies? covers ofzo... Lachen
2. Wat is trouwens jou bron Lars muziekschrift of zelf getabt of andere site?
3. Lars, de reden dat hij zo breed is komt door de regel "Ik speel hem namelijk met een Am en ....." Als je deze door midden knipt komt ie vast wel goed.


larsfrusciante

Larsfrusciante 2007-11-14

Uhh de solo is prima hoor...
Alleen de tabs zijn te ver opgeschroven.


gitaarfreak

Gitaarfreak 2007-11-14

Aight. Als jij dat denkt. Speel jij m zo, en ik op mijn manier.


gitaarfreak

Gitaarfreak 2007-11-13

De solo klopt ook niet helemaal.
hij hoort zeg maar zo:

e|------9----------9---------------------------------------------------------|
b|--10---------10------------------------------------------------------------|
g|--------11b---------11b(full)--11--11 --11p9-----------------9--11b--9-----|
d|----------------------------------------------11--11--9--11-------------11 |
a|---------------------------------------------------------------------------|
e|---------------------------------------------------------------------------|

e|-----9--12--14----10--12--15b--14----17--16--14--12-14-12----12-|
b|--10------------9-----------------------------------------14----|
g|----------------------------------------------------------------|
d|----------------------------------------------------------------|
a|----------------------------------------------------------------|
e|----------------------------------------------------------------|

e|-----------------12----14b--14--12----12-----------12----------------|
b|-14--14b-14b-14b----14-------------14----14--12-------15--14--14-----|
g|------------------------------------------------14----------------14-|
d|---------------------------------------------------------------------|
a|---------------------------------------------------------------------|
e|---------------------------------------------------------------------|

astublieft!!

en t intro en tidjens het couplet is het 2e deel idd zoals hierboven al door iemand anders vermeld is. Maar nog n opmerking: Het 1e deel kun je ook zo spelen:

e|------------------------------------------|
b|-------0--1-------------------------------|
g|-------------------------------0--2-------|
d|----2--------2--0h2p0----------------0----|
a|--0--------------------3----3----------3--|
e|--------------------------1---------------|

e|--------------------------------------------|
b|-------0-1----------------------------------|
g|-------------------------------0--2---------|
d|----2------2--0h2p0------------------3--0---|
a|--0------------------3-----3----------------|
e|-------------------------1------------------|

dit eerste deel speel je 3x en dan komt het boven door iemand anders genoemde 2e deel

Dan komt dit eerste deel 2x en vervolgens het 2e deel en vervolgens het refrein met de akkoorden: Am fmaj7 in het tempo neer op neer neer op neer neer neer op en dan C-G-Dm-Am in het tempo neer neer


(voor degene die het niet weten: )
h= hammer on
p= pull off
b= bend


Grts, moi.


larsfrusciante

Larsfrusciante 2007-11-03

Thx voor je comentaar.
Hij is alleen niet zo goed gelukt om erop te plaatsen zoals je ziet.


dablack0

Dablack0 2007-10-26

hij is groot en deels goed maar hij moet zo volgens mij:

intro:

E |----------------------------------------|
B |-------0-1----------------------------|
G |-----------------------0-2-----------|
D |----2----------------------------------|
A |--0-----------------3------------------|
E |-----------------1----------------------|

en dat 2de deeltje:

E |-----0-----------------------1-
B |-------1-----3---------------3-
G |---------------------------2---
D |---2-----------0-----3---0-----
A |3---------2-------3---3-------
E |---------3-------1-------------

voor de rest kloppen de akkoorden en de solo volgens mij wel Lachen heb lang niet meer gespeeld dit nr. je krijgt dat idd Am en F en dan in refrein C - G - Dm - Am

thx voor posten enzo Lachen


BraveKaptain

BraveKaptain 2007-10-07

hee maar waar is het tweede stukje van..? die kan ik niet plaatsen... verder echt prima nummer...
weet je miss ook de bas..? Cool


Plaats opmerkingen e.o. suggestie voor Red Hot Chili Peppers - Californication Tab