• Streaming gitaar liedjes spelen
  • Leer gitaar spelen & gitaarlessen
  • 80.000 leden
The tuning is half-step-down


--------------------------------------|
------1---1h3p1---1-----1---1h3p1---1-|
----2---2-------2-----2---2-------2---|
--2-----------------3-----------------|
--------------------------------------|
--------------------------------------|

--------------------------------------|
------------------------3---3h5p3---3-|
------0---0h2p0---0---4---4-------4---|
----2---2-------2---5-----------------|
--3-----------------------------------|
--------------------------------------|

--------------------------------------|
------1---1h3p1---1-----1---1h3p1---1-|
----2---2-------2-----2---2-------2---|
--2-----------------3-----------------|
--------------------------------------|
--------------------------------------|

--------------------------------------||
--------------------------------------||
------0---0h2p0---0-----0---0h2p0---0-||
----2---2-------2-----0---0-------0---||
--3-----------------2-----------------||
--------------------------------------||


-- TEKST --

Come to decide that the things that i tried
Were in my life just to get high on

When i sit alone come get a little more known
But i need more than myself this time

Step fr
>> Registreer, speel & download <<
Meld nu aan en speel de rest van Red Hot Chili Peppers - Snow

>> Registreer, speel & download <<
om the road to the sea to the sky 
And i do believe what we rely on

When i lay it on
Come get to play it on
all my life to sacrifice

Hey oh listen what i say oh
I got your
Hey oh listen what i say oh

When will I know that I really can't go
To the well one more time to decide on

When it's killing me 
when will I really see
All that i need to look inside

Come to believe that i better not leave
Before I get my chance to ride

When it's killing me
What do I really need
All that I need to look inside

The more I see the less I know
The more I like to let it go..hey oh

Deep beneath the cover of another perfect wonder
Where it's so white as snow

Privately divided by a world so undecided
And there's nowhere to go

In beneath the cover of another perfect wonder
Where it's so white as snow

Running through a field where all my tracks will
Be concealed and there is nowhere to go

when to descend to amend for a friend
All the channels that have broken down

Now you bring it up
i'm gonna ring it up
Just to hear you sing it out

Step from the road to the sea to the sky
and I do believe what we rely on

When I lay it on
comeget to play it on
all my life to sacrifice

More info

Comments Red Hot Chili Peppers - Snow - tab

tijmentje

Tijmentje 2013-02-25

(3)


tijmentje

Tijmentje 2013-02-25


tijmentje

Tijmentje 2013-01-29

het gaat wel snel!


tijmentje

Tijmentje 2013-01-29

doe eens er bij (niet tegelijk)op snaar E de lage 0---0---0---0---/---2---2---2---2/---4---4---4---4| en herhalen en herhalen snel!!!!!!!!


Sam1995

Sam1995 2011-02-18

de tuning is a half step down betekent dat je snaren in plaats van eadgbe los aangespeeld de noten Eb Ab Db Gb Bb Eb zijn . je moet hem hiervoor anders stemmen dit kun je doen door bijvoorbeeld op je stemapparaat een mol aan te zetten of de toon vergelijken met die van een andere gitaar met een capo op 1.


bjornkray

Bjornkray 2010-12-11

verlept


Kazzz

Kazzz 2010-04-25

dit liedje moet met de capo (gitaarklem) op 4


Kazzz

Kazzz 2010-03-24

----------------------/-----------------------/--------------------- ----------------------/-----------------------/--------------------- -------4---4h6p4---4--/-------4---4h6p4---4---/-------------------------etc.-- -----6---6----------6-/-----6---6----------6--/------4---4h6p4---4-- ---6------------------/---7-------------------/----6---6-----------6 ----------------------/-----------------------/--7------------------ ik zit nu 2 jaar op les en deze versie is moeilijker dan die hier boven maar vind ik beter klinken Dit klink ook beter volgens mij is dit het maar dan moet je wel een capo/gitaarklem neerzetten


Kazzz

Kazzz 2010-03-24

----------------------/-----------------------/--------------------- ----------------------/-----------------------/--------------------- -------4---4h6p4---4--/-------4---4h6p4---4---/-------------------------etc.-- -----6---6----------6-/-----6---6----------6--/------4---4h6p4---4-- ---6------------------/---7-------------------/----6---6-----------6 ----------------------/-----------------------/--7------------------ ik zit nu 2 jaar op les en deze versie is moeilijker dan die hier boven maar vind ik beter klinken Dit klink ook beter volgens mij is dit het maar dan moet je wel een capo/gitaarklem neerzetten


Kazzz

Kazzz 2010-03-24

niet op letten, klopt niet helemaal (hier boven)


emmskie43

Emmskie43 2009-11-22

de akkoorde zijn voor refrijn en couplet

Am F C G

 

-xxxx- emmie


elmoos

Elmoos 2009-04-15

kan iemand effe die baslijn erop zette, alvast bedankt Cool


Dirk Hubregtse

Dirk Hubregtse 2009-04-03

Nog eens een uitleg over het spelen van dit nummer. Ik zou het zelf inderdaad ook op de volgende manier spelen. Opmerking is wel dat dit alleen de intro en het eerste en tweede couplet is.
----------------------/-----------------------/---------------------
----------------------/-----------------------/---------------------
-------4---4h6p4---4--/-------4---4h6p4---4---/-------------------------etc.--
-----6---6----------6-/-----6---6----------6--/------4---4h6p4---4--
---6------------------/---7-------------------/----6---6-----------6
----------------------/-----------------------/--7------------------

[b](4h6p4)[b/]
Wat je hier doet is het volgenden
je plaatst je wijsvinger op de 4e fret van de G snaar.
Deze sla je aan.
Direct daarna 'sla' je als het waren je pink op de 6e fret van de G snaar.
Deze trek je nu snel naar beneden (richting de de hoge e)waarna je hem weer los laat en de G snaar weer aanslaat met je wijsvinger weer op de 4e fret.

Hierna ga je weer verder met de rest van het nummer.

Voor de rest van het nummer kan je
[url=http://www.ultimate-guitar.com/tabs/r/red_hot_chili_peppers/snow_hey_oh_tab.htm]Hier[/url]kijken.

De beste manier om dit onder de knie te krijgen is: Oefenen, oefenen, oefenen!
En probeer het nummer tussendoor eens te luisteren, zodat je hoort hoe John het speelt.
Veel succes met spelen!

Groet Dirk Knipoog


Manon33

Manon33 2008-10-28

ik ga dit nog niet reddenTong


woutervandenberghe

Woutervandenberghe 2008-10-26

goe liedje


Fabian94

Fabian94 2008-10-26

Wat bedoelen ze met
The tuning is half-step-down


Fable

Fable 2008-10-20

poeh, ik vind dit liedje best lastig...
flink oefenen dus en hopen dat het telkens beter gaat Tong


jordy123

Jordy123 2008-09-28

hoe gaan de snaren

e
a
d
g
b
e


of
e
b
g
d
a
e

veel mensen doen dat altijd anders maar hoe zat dat bij dit liedje( anders speel im alles dadelijk op de onderste snaren in plaats van andersom


jordy123

Jordy123 2008-06-24

wta betekent hammer-on en pull-off


alvast bedankt: jordy


Quincy

Quincy 2007-12-21

egt goed nummer ben blij dat ik het zag
f*cking rtc is goed!!!
gr Quincy Knipoog


larsfrusciante

Larsfrusciante 2007-11-03

xx-me-myself-andi-xx hoezo?
Improviseren is juist goed bij solo's etc.
Het licht alleen aan je ervaringen.


gilerakevie

Gilerakevie 2007-10-09

----------------------/-----------------------/---------------------
----------------------/-----------------------/---------------------
-------4---4h6p4---4--/-------4---4h6p4---4---/-------------------------etc.--
-----6---6----------6-/-----6---6----------6--/------4---4h6p4---4--
---6------------------/---7-------------------/----6---6-----------6
----------------------/-----------------------/--7------------------

ik zit nu 2 jaar op les en deze versie is moeilijker dan die hier boven maar vind ik beter klinken

Dit klink ook beter en het is ook beter


larsfrusciante

Larsfrusciante 2007-09-06

Eey loveandconfusion dit kan inderdaad kloppen.
De meeste gitaar leraren hebben liever dat je het op gehoor traint of via noten.


little-jason

Little-jason 2007-08-07

----------------------/-----------------------/---------------------
----------------------/-----------------------/---------------------
-------4---4h6p4---4--/-------4---4h6p4---4---/-------------------------etc.--
-----6---6----------6-/-----6---6----------6--/------4---4h6p4---4--
---6------------------/---7-------------------/----6---6-----------6
----------------------/-----------------------/--7------------------

ik zit nu 2 jaar op les en deze versie is moeilijker dan die hier boven maar vind ik beter klinken


loveandconfusion

Loveandconfusion 2007-07-31

Ik speel al 6 jaar maar dit heb ik nog nooit geleerd =O
En ik snap alleen akkoorden zoals A en Dm die erboven staan. Dat met die lijntjes en cijfertjes daar snap ik helemaal niks van en ook niet van die lessen. Mja.
xoxoxo


larsfrusciante

Larsfrusciante 2007-07-09

Ja je kan het nummer wel op op een arcoustische gitaar spelen.
Meestal is dit wel lastiger omdat de snaren meestal strakker staan dan een e gitaar.
Teminste uit mijn ervaring.
Daarom zou het mischien kunnen zijn dat de hammer on vrij lastig gaat.
Dus je zou harder met je vinger moeten slaan.
Wat makkelijker is wka hammer on is een andere tab alleen wel moerlijker.

MVG,

Lars Bezemer


mathijs

Mathijs 2007-07-09

oke maar zit pas 2 jaar op les en ik snap die hammer up nie wat is dat Verbaasd


mathijs

Mathijs 2007-07-09

he wrm doet hij het nie op mijn naam gewoon mathijs in plaats van lars-nog-wat


larsfrusciante

Larsfrusciante 2007-07-09

Hammer on word al beschreven bij de lessen.
Je slaat als het waren op de snaar.

Voorbeeld

1h3p1 is dus je slaat je snaar aan en hebt je vinger op het eerste vakje daarna sla je dus met je pink op het 3de vakje en veegt hem daarna weg dat betekent die p dan.

het beginstuk dit dus:

----------------
------1---1h3p1-
----2---2-------
--2-------------
----------------
----------------

Dit pak je dus gewoon als een A mineur en je hebt dan nog je pink over.
Je pink gebruik je dus om mee te slaan (hammer on) en daarna dus een pull of dus dan veeg je het als het waren weg.

MVG,

Lars Bezemer


mathijs

Mathijs 2007-07-08

beetje stomme vraag
zou ik dit op een accoestiche(<volgens mij goed maar heb dislectie)gitaar kunnen spelen Verbaasd


Sander

Sander 2007-07-08

Geen enkele vraag is stom!
Je kan deze heel goed op de akoestische gitaar spelen.

ff een vraagje:
het bericht hiervoor is nu al het tweede berichtje met mijn naam erboven,
die ik zelf NIET heb geplaatst. Hoe kan dit?


mathijs

Mathijs 2007-07-08

jah sorry vond ik ook al gek maar bedankt voor het antwoort


Sander

Sander 2007-03-05

de h betekent hammer-on en
de p betekent pull-off.

dus 1h3p1 betekent van fret 1 doe je een hammer-on naar fret 3 en vervolgens weer een pull-off naar fret 1.

Ik denk dat je die andere 2 nu ook wel begrijpt tog?
Zo niet, laat t ff weten!


mariekjj

Mariekjj 2007-03-04

he, wat betekend dat '1h3p1' & 'h2p0' & '3h5p3'?hoe moet je dat spelen op de gitaar?

m.v.g Marieke


Gerard

Gerard 2006-12-27

He dat YouTube is voor dit soort TAbs echt wel VET..
GEwoon eerst effe luisteren via YouTube en dan naspelen

hier de URL: [url=http://www.youtube.com/watch?v=b4JDNYZEjZo]Snow (hey jo)[/url]

weet jij nog nummers te vinden op YouTube plaats ze dan ook bij de songs Tong

Groet Gerard