• Streaming gitaar liedjes spelen
  • Leer gitaar spelen & gitaarlessen
  • 80.000 leden
|--------|
|--------|
|--------|
|7-3-6-4-|
|4-4-4-4-|
|--------|


|------------------------------------------------------------|
|------------------------------------------------------------|
|----------------------------------------------7-7-7-/-9-9-9-|
|------------------------7-7-7-----------------7-7-7-/-9-9-9-|
|4-4-x-x-4-4-x-x-4-4-x-x-5-5-5-4-4-x-x-4-4-x-x-5-5-5-/-7-7-7-|
|2-2-x-x-2-2-x-x-2-2-x-x-------2-2-x-x-2-2-x-x---------------|

|------------------------------------------------------------|
|------------------------------------------------------------|
|------------------------------------------------------------|
|------------------------7-7-7-----------------7-7-7-/-9-9-9-|
|4-4-2-2-4-4-2-2-4-4-2-2-5-5-5-4-4-2-2-4-4-2-2-5-5-5-/-7-7-7-|
|2-2-0-0-2-2-0-0-2-2-0-0-------2-2-0-0-2-2-0-0---------------|


|----------------------------------------------------------------|
|----------------------------------------------------------------|
|----------------------------------------------------------------|
|--------------------------------9---9---9-9-9-9---9-9---9-9-9-9-|
|7---7---7-7-7-7---7-7---7-7-7-7-7---7---7-7-7-7---7-7---7-7-7-7-|
|5---5---5-5-5-5---5-5---5-5-5-5---------------------------------|
 1 + 2 + 3 + 4 + 1 + 2 + 3 + 4 + 1 + 2 + 3 + 4 + 1 + 2 + 3 + 4 +

|----------------------------------------------------------------|
|----------------------------------------------------------------|
|----------------------------------------------------------------|
|6---6---6-6-6-6---6-6---6-6-6-6-7---7---7-7-7-7---7-7---7-7-7-7-|
|4---4---4-4-4-4---4-4---4-4-4-4-5---5---5-5-5-5---5-5---5-5-5-5-|
|----------------------------------------------------------------|
 1 + 2 + 3 + 4 + 1 + 2 + 3 + 4 + 1 + 2 + 3 + 4 + 1 + 2 + 3 + 4 +


|--------------------------------|
|--------------------------------|
|--------------------------------|
|--------------------------------|
|4-4-x-x-4-4-x-x-4-4-x-x-4-4-x-x-|
|2-2-x-x-2-2-x-x-2-2-x-x-2-2-x-x-|


|------------------------------------------------------------|
|------------------------------------------------------------|
|----------------------------------------------7-7-7-/-9-9-9-|
|------------------------7-7-7-----------------7-7-7-/-9-9-9-|
|4-4-x-x-4-4-x-x-4-4-x-x-5-5-5-4-4-x-x-4-4-x-x-5-5-5-/-7-7-7-|
|2-2-x-x-2-2-x-x-2-2-x-x-------2-2-x-x-2-2-x-x---------------|


|------------------------------------------------------------|
|------------------------------------------------------------|
|------------------------------------------------------------|
|------------------------7-7-7-----------------7-7-7-/-9-9-9-|
|4-4-2-2-4-4-2-2-4-4-2-2-5-5-5-4-4-2-2-4-4-2-2-5-5-5-/-7-7-7-|
|2-2-0-0-2-2-0-0-2-2-0-0-------2-2-0-0-2-2-0-0---------------|
 .......................       ...............                P.M = ...


|----------------------------------------------------------------|
|----------------------------------------------------------------|
|----------------------------------------------------------------|
|--------------------------------9---9---9-9-9-9---9-9---9-9-9-9-|
|7---7---7-7-7-7---7-7---7-7-7-7-7---7---7-7-7-7---7-7---7-7-7-7-|
|5---5---5-5-5-5---5-5---5-5-5-5---------------------------------|
 1 + 2 + 3 + 4 + 1 + 2 + 3 + 4 + 1 + 2 + 3 + 4 + 1 + 2 + 3 + 4 +

|----------------------------------------------------------------|
|----------------------------------------------------------------|
|---------------------------------------------
>> Registreer, speel & download <<
Meld nu aan en speel de rest van Rise Against - Give It All

>> Registreer, speel & download <<
-------------------|
|6---6---6-6-6-6---6-6---6-6-6-6-7---7---7-7-7-7---7-7-BREAKDOWN-|
|4---4---4-4-4-4---4-4---4-4-4-4-5---5---5-5-5-5---5-5-----------|
|----------------------------------------------------------------|
 1 + 2 + 3 + 4 + 1 + 2 + 3 + 4 + 1 + 2 + 3 + 4 + 1 + 2 + 3 + 4 +


|----|
|----|
|----|
|----|
|4-3-|
|5-4-|

|----------------------------------------------------------------|
|----------------------------------------------------------------|
|----------------------------------------------------------------|
|----------------7-7-7-7-7-7-7-7---------------------------------|
|4-4-4-4-4-4-4-4-5-5-5-5-5-5-5-5-2-2-2-2-2-2-2-2-4-~-4-~-3-~-3-~-|
|2-2-2-2-2-2-2-2-----------------0-0-0-0-0-0-0-0-5-~-5-~-4-~-4-~-|


|----------------------------------------------------------------|
|----------------------------------------------------------------|
|----------------------------------------------------------------|
|----------------7-7-7-7-7-7-7-7---------------------------------|
|4-4-4-4-4-4-4-4-5-5-5-5-5-5-5-5-2-2-2-2-2-2-2-2-4-~-4-~-3-~-3-~-|
|2-2-2-2-2-2-2-2-----------------0-0-0-0-0-0-0-0-5-~-5-~-4-~-4-~-|
 ...............................................                  P.M = ...

|----------------------------------------------------------------|
|----------------------------------------------------------------|
|----------------------------------------------------------------|
|----------------7-7-7-7-7-7-7-7---------------------------------|
|4-4-4-4-4-4-4-4-5-5-5-5-5-5-5-5-2-2-2-2-2-2-2-2-2---------------|
|2-2-2-2-2-2-2-2-----------------0-0-0-0-0-0-0-0-0---------------|


|----------------------------------------------------------------|
|----------------------------------------------------------------|
|----------------------------------------------------------------|
|--------------------------------9---9---9-9-9-9---9-9---9-9-9-9-|
|7---7---7-7-7-7---7-7---7-7-7-7-7---7---7-7-7-7---7-7---7-7-7-7-|
|5---5---5-5-5-5---5-5---5-5-5-5---------------------------------|
 1 + 2 + 3 + 4 + 1 + 2 + 3 + 4 + 1 + 2 + 3 + 4 + 1 + 2 + 3 + 4 +

|----------------------------------------------------------------|
|----------------------------------------------------------------|
|----------------------------------------------------------------|
|6---6---6-6-6-6---6-6---6-6-6-6-7---7---7-7-7-7---7-7-BREAKDOWN-|
|4---4---4-4-4-4---4-4---4-4-4-4-5---5---5-5-5-5---5-5-----------|
|----------------------------------------------------------------|
 1 + 2 + 3 + 4 + 1 + 2 + 3 + 4 + 1 + 2 + 3 + 4 + 1 + 2 + 3 + 4 +


|----------------------------------------------------------------|
|----------------------------------------------------------------|
|----------------------------------------------------------------|
|--------------------------------9-9-9-9-9-9-9-9-9-9-9-9-9-9-9-9-|
|7-7-7-7-7-7-7-7-7-7-7-7-7-7-7-7-7-7-7-7-7-7-7-7-7-7-7-7-7-7-7-7-|
|5-5-5-5-5-5-5-5-5-5-5-5-5-5-5-5---------------------------------|

|----------------------------------------------------------------|
|----------------------------------------------------------------|
|----------------------------------------------------------------|
|6-6-6-6-6-6-6-6-6-6-6-6-6-6-6-6-7-7-7-7-7-7-7-7-7-7-7-7-7-7-7-7-|
|4-4-4-4-4-4-4-4-4-4-4-4-4-4-4-4-5-5-5-5-5-5-5-5-5-5-5-5-5-5-5-5-|
|----------------------------------------------------------------|

Finish On
Notes:Hold note.
|--------|
|--------|
|--------|
|--------|
|7-~-~-~-|
|5-~-~-~-|

More info

Comments Rise Against - Give It All - tab

kenworth

Kenworth 2011-11-08

Ook hier, wil je de tekst toevoegen om de tab compleet te maken?

Alvast bedankt.