• Streaming gitaar liedjes spelen
  • Leer gitaar spelen & gitaarlessen
  • 80.000 leden
Eb|----------------------------------------5--3--1--0--
Bb|-----------------------------------5----------------
Gb|-----10------10------10------10----5----------------
Db|---------10------10------10--------5----------------
Ab|-----------------------------------3----------------
Db|--8-------------------------------------------------

Eb|--1--------1-----1-----
Bb|--1--1--3--1--3--1--1--
Gb|--2--2--3--2--3--2-----    (x2)
Db|--3--2--3--3--3--3--2--
Ab|--3-----1--3--1--3--3--
Db|-----------------------

Eb|--------1-----
Bb|--3--3--1--1--
Gb|--2--3--2-----   (x2)
Db|-----3--3--2--
Ab|-----1--3--3--
Db|--------------

Eb|--1--------1-----1-----
Bb|--1--1--3--1--3--1--1--
Gb|--2--2--3--2--3--2-----    (x2)
Db|--3--2--3--3--3--3--2--
Ab|--3-----1--3--1--3--3--
Db|-----------------------

Eb|--------1-----
Bb|--3--3--1--1--
Gb|--2--3--2-----    (x2)
Db|-----3--3--2--
Ab|-----1--3--3--
Db|--------------

Eb|------------------------------------5--3--1--0--
Bb|---------------------------------5--------------
Gb|-----10------10------10------10--5--------------
Db|---------10------10------10------5--------------
Ab|---------------------------------3--------------
Db|--8---------------------------------------------

 
Eb|--1--------1-----1-----
Bb|--1--1--3--1--3--1--1--
Gb|--2--2--3--2--3--2-----      (x2)
Db|--3--2--3--3--3--3--2--
Ab|--3-----1--3--1--3--3--
Db|-----------------------

Eb|--------1-----
Bb|--3--3--1--1--
Gb|--2--3--2-----   (x2)
Db|-----3--3--2--
Ab|-----1--3--3--
Db|--------------

E|--------------------------------------------------------------------------
B|--------1-----------1-----------1-----------1-----------1-----------1-----
G|-----2-----2-----2-----2-----2-----2-----2-----2-----3-----3-----3-----3--
D|--3-----------3-----------2-----------2-----------3-----------3-----------
A|-------------------------------------------------
>> Registreer, speel & download <<
Meld nu aan en speel de rest van Rise Against - Hero Of War

>> Registreer, speel & download <<
-------------------------
E|--------------------------------------------------------------------------

								
Lyrics:

He said, “Son, 
Have you see the world?
Well, what would you say
If I said that you could?
Just carry this gun and you’ll even get paid.”
I said, “That sounds pretty good.” 

Black leather boots
Spit-shined so bright
They cut off my hair but it looked alright
We marched and we sang
We all became friends
As we learned how to fight 

A hero of war
Yeah that’s what I’ll be
And when I come home 
They’ll be damn proud of me
I’ll carry this flag 
To the grave if I must
Because it’s flag that I love 
And a flag that I trust 

I kicked in the door
I yelled my commands
The children, they cried
But I got my man
We took him away
A bag over his face
From his family and his friends 

They took off his clothes 
They pissed in his hands
I told them to stop
But then I joined in 
We beat him with guns
And batons not just once
But again and again 

A hero of war
Yeah that’s what I’ll be
And when I come home 
They’ll be damn proud of me
I’ll carry this flag 
To the grave if I must
Because it’s flag that I love 
And a flag that I trust 

She walked through bullets and haze
I asked her to stop
I begged her to stay
But she pressed on 
So I lifted my gun
And I fired away 

The shells jumped through the smoke
And into the sand 
That the blood now had soaked
She collapsed with a flag in her hand
A flag white as snow 

A hero of war 
Is that what the see
Just medals and scars
So damn proud of me
And I brought home that flag
Now it gathers dust
But it’s a flag that I love
It’s the only flag I trust 

He said, “Son, have you seen the world? Well what would you say, if I said that you could?”


More lyrics: http://www.lyricsmania.com/hero_of_war_lyrics_rise_against.html
All about Rise Against: http://www.musictory.com/music/Rise+Against

More info

Comments Rise Against - Hero Of War - tab

kenworth

Kenworth 2011-08-23

Er staan helemaal geen akkoorden of iets bij deze song....
Zou je deze erbij willen plaatsen?
Alvast bedankt.