• Streaming gitaar liedjes spelen
  • Leer gitaar spelen & gitaarlessen
  • 80.000 leden
La Bamba


Intro:

e--------------------------------------------
B--------------------------------------------
G------------------0------2---0--------------
D--------0------2------3---------------------
A-----2------3-------------------------------
E--3-----------------------------------------

e----------------------------------------
B------------------------------------------------
G--------------------------------0------2---0----
D--------0----3--3--2--0------2------3-----------
A-----2--------------------3---------------------
E--3---------------------------------------------

[Riff 1]:

   C      F
e------------------------------------------------
B------------------------------------------------
G-----0------2--0--------------------------------
D---2-----3--------------------------------------
A-3----------------------------------------------
E------------------------------------------------

[Riff 2]:

 C      C              F        G                     
e----------------
>> Registreer, speel & download <<
Meld nu aan en speel de rest van Ritchie Valens - La Bamba

>> Registreer, speel & download <<
-------------------------------
B------------------------------------------------
G-------------------------------0------2--0------
D--------0---3--3--2---0-----2------3------------
A-----2-------------------3----------------------
E--3---------------------------------------------



Intro

[Riff 1]
Para bailar la bamba
[Riff 2]
Para bailar la bamba se necesita
Una poca de gracia
Una poca de gracia pa mi pa ti
ay arriba y arriba
Ay arriba y arriba por ti sere por ti sere

[Riff 1]
Yo no soy marinero
[Riff 2]
Yo no soy marinero soy capitan 
Soy capitan
Soy capitan

[Riff 2]
Bamba,Bamba
Bamba,Bamba
Bamba,Bamba
Bamba,Bamba

Intro


[Riff 1]
Para bailar la bamba
[Riff 2]
Para bailar la bamba se necesita
Una poca de gracia
Una poca de gracia pa mi pa ti
ay arriba y arriba
Ay arriba y arriba por ti sere por ti sere

[Riff 1]
Yo no soy marinero
[Riff 2]
Yo no soy marinero soy capitan 
Soy capitan
Soy capitan

[Riff 2]
Bamba,Bamba
Bamba,Bamba
Bamba,Bamba
Bamba,Bamba

More info

Comments Ritchie Valens - La Bamba - tab

kimmie1989

Kimmie1989 2011-04-16

ik snap niks van dat riff???


angelique

Angelique 2007-12-25

Hip Lachebek