• Streaming gitaar liedjes spelen
  • Leer gitaar spelen & gitaarlessen
  • 75.000 leden
Nog 10 tab te gaan voor deze maand.
Angie

intro:

          Am      Am7        E7
|------|--0---0---3^0------|--------0-------0---0-------|
|------|--1---1---1--------|------3---3-----3-----3-----|
|------|--2---2---2--------|----1-------1---1-------1---|
|------|--2---2---2--------|--------------2-------------|
|-<12>-|-------------------|----------------------------|
|------|-------------------|-0--------------------------|

  Csus2        Bbsus2 F      F               C
|---------3---------1-1----|-1---------1----------------|
|-------3---3-------1-1----|---1------------------------|
|-----5-------5-----3-2----|--------2----------0-0------|
|-5-------------5---3-3----|------3------------3-2------|
|--------------------------|-----------------3----------|
|--------------------------|----------------------------|

  Em7      
De rest van dit nummer alleen voor Gitaartabs leden! Maak gratis Gitaartabs account aan . 
Gitaar Tabs

Download, print en speel de Tab ♪ Rolling Stones - Angie

Meld je aan en print, download of speel binnen 15 sec mee Tab ♫ Rolling Stones - Angie.
Reeds 70.000 gitaristen zijn je voorgegaan.

Gratis Aanmelden Gitaartabs

Wat vind jij van deze song? Rolling Stones - Angie

Comments Rolling Stones - Angie - tab

Plaats opmerkingen e.o. suggestie voor Rolling Stones - Angie