• Streaming gitaar liedjes spelen
  • Leer gitaar spelen & gitaarlessen
  • 75.000 leden
Paint it Black 


(Intro, fingerpicked:)

   ^   ^   ^   ^     ^   ^   ^   ^   ^   ^   ^   ^   ^   ^   ^   ^
e:-----0---1---3---|-1---0---------|---------0-----|---------------|
B:-3---------------|---------3---3-|-2---3---2---3-|-2-------------|
G:-----------------|-------------2-|-2---2---2---2-|-2-------------|
D:---0---0---0---0-|---0---0---0-0-|---------------|---------------|
A:-----------------|---------------|---------------|---------------|
E:-----------------|---------------|---------------|---------------|

   ^   ^   ^   ^     ^   ^   ^   ^   ^   ^   ^   ^       ^   ^     ^ 
e:-----0---1---3---|-1---0---------|-------------------|-0-----------|
B:-3---------------|-3---3---3---2-|-3---5-------0h2h3-|-----3p2p0-2-|
G:-----------------|-----2---2-----|-------------------|-------------|
D:---0---0---0---0-|---0-------0---|-------------------|-------------|
A:-----------------|---------------|-------------------|-------------|
E:-----------------|---------------|-------------------|-------------|
 
(Verse:)

          ^  ^     ^     ^
e:--1--|--------------------1--||
B:--3--|--------------------3--||
G:--2--|--------------------2--||
D:--0--|-----0-----0-----0--0--||
A:-----|--------0-----0-----0--||
E:-----|-----------------------||

    ^        ^     ^     ^  
De rest van dit nummer alleen voor Gitaartabs leden! Maak gratis Gitaartabs account aan . 
Gitaar Tabs

Download, print en speel de Tab ♪ Rolling Stones - Paint It Black

Meld je aan en print, download of speel binnen 15 sec mee Tab ♫ Rolling Stones - Paint It Black.
Reeds 70.000 gitaristen zijn je voorgegaan.

Gratis Aanmelden Gitaartabs

Comments Rolling Stones - Paint It Black - tab

Leo Fransen

Leo Fransen 2010-02-24

Volgens mij klopt ie precies


debeste1995

Debeste1995 2009-07-20

deze lijkt gekopieerd van een andere site Verbaasd


Manon33

Manon33 2008-11-03

me neither?


naud12

Naud12 2008-11-02

Verbaasd k snap hem niet echt Verbaasd