• Streaming gitaar liedjes spelen
  • Leer gitaar spelen & gitaarlessen
  • 75.000 leden
Volume 4


explanation signs:

7h8 = hammer-on
7p5 = pull-off
7b  = bend the string a little bit
~   = vibration
/   = slide up
x   = percussionstrike


RIFF A

note 1: mute low E slightly and let ring pull-off tones with low E

E -----------------|-----------------|
B -----------------|-----------------|
G -----------------|-----------------|
D -----------------|-----------------|
A -7p5-7p5--8--7p5-|-7p5-7p5--8--7p5-|
E -0---0----0--0---|-0---0----0--0---|

E -----------------|-----------------|
B -----------------|-----------------|
G -----------------|-----------------|
D -----------------|-8-8-------------|
A -7p5-7p5--8--7p5-|-7-7-------------|
E -0---0----0--0---|-0-0-------------|

note 2: after interlude, riff A is played with 
4th bar the same as first three bars

RIFF B

note: tone between brackets in first bar is played by a second guitar

E -------------------|------------------------|
B -------------------|------------------------|
G ----------------5~-|------------------------|
D ---7--5--------(3~)|---7--5-----9h12-5h7/9~-|
A --------7~---/3----|--------7~--------------|
E -5-----
De rest van dit nummer alleen voor Gitaartabs leden! Maak gratis Gitaartabs account aan . 
Gitaar Tabs

Download, print en speel de Tab ♪ Rollins Band - Volume 4

Meld je aan en print, download of speel binnen 15 sec mee Tab ♫ Rollins Band - Volume 4.
Reeds 70.000 gitaristen zijn je voorgegaan.

Gratis Aanmelden Gitaartabs

Artiesten

Rollins Band

Song information

Naam: Volume 4
Album:
Notatie: Tab (TAB)
Category: Pop
Niveau:

Statistiek

Downloads: 1.972
Commentaren:

Credits

Geplaat door: JanH
Geschreven door: Gitaartabs
Datum: 2006-10-21