• Streaming gitaar liedjes spelen
  • Leer gitaar spelen & gitaarlessen
  • 75.000 leden
Apache



   Am               D
e----------------------------5--3---
B--------1--3^------------1---------
G-----2----------------2------------
D----------------------------------- Play 2 times
A-----------------------------------
E-----------------------------------

  Am            D         Am
e--------------------------
B--------------------------
G------2-----2-------------
D---2-----2-----4--2--0--2-  Repeat
A--------------------------
E--------------------------

  D           G        D
e------------------------
B----2-----3-------------
G-2-----2-----4--2--0--2-
D------------------------
A------------------------
E------------------------

  Am            D         Am
e------------------------
B------------------------
G-----2-----2------------
D--2-----2-----4--2--2--- =20
A------------------------
E------------------------
  F                           Am
e----------------------------------
B----------------------------------
G---------------------------------- Played 2 times with muted strings.
D---3333---3333---3333---3333------
A-3------3------3------3------2-0*-
E----------------------------------

* =3D Only played the first time

  F            G        Am
e-----------------------0-----------
B-------1--0---0--1--3-----3--1-----
G----2----------------------------2-
D-3---------------------------------
A-----------------------------------
E-----------------------------------
  F            G        C
e---------------------------------
B-------1--0---0--1--3------------
G-----2------------------0--------
D-3-------------------------------
A---------------------------------
E---------------------------------
  C7
e-----3-------6---
B-2/5---5-5/8---8-
G-----------------
D-----------------
A-----------------
E-----------------
  F            G        Am
e-----------------------0---
De rest van dit nummer alleen voor Gitaartabs leden! Maak gratis Gitaartabs account aan . 
Gitaar Tabs

Download, print en speel de Tab ♪ Shadows - Apache

Meld je aan en print, download of speel binnen 15 sec mee Tab ♫ Shadows - Apache.
Reeds 70.000 gitaristen zijn je voorgegaan.

Gratis Aanmelden Gitaartabs

Wat vind jij van deze song? Shadows - Apache


Comments Shadows - Apache - tab

pietsommen

Pietsommen 2010-11-11

hoe kan ik de tabulatuur van "apache" op gitaarpro6 krijgen?

 


20041959

20041959 2010-11-03

kan ik ook de gewoone noten van apache krijgen i.p.v tabs


Plaats opmerkingen e.o. suggestie voor Shadows - Apache