• Streaming gitaar liedjes spelen
  • Leer gitaar spelen & gitaarlessen
  • 80.000 leden
Theme For Young Lovers -The Shadows


Intro
e|--------10-9-7-9----7---------------------------------------------|
B|-------------------------------------7--5-----5-----7-------------|
G|-------------------------------------------7----------------------|
D|------------------------------------------------------------------|
A|------------------------------------------------------------------|
E|------------------------------------------------------------------|

e|--------10-9-7-9----7---------------------------------------------|
B|-------------------------------------7--5--------5----------------|
G|-------------------------------------------7----------------------|
D|------------------------------------------------------------------|
A|------------------------------------------------------------------|
E|------------------------------------------------------------------|

Riff1
e|------------------------------------------------------------------|
B|------------------------------------------------------------------|
G|-------------------------------------------------2----------------|
D|------0----2--4---2--0--------0----0----2---4-------4----0---4----|
A|-0--2---------------------2---------------------------------------|
E|------------------------------------------------------------------|

e|------------------------------------------------------------------|
B|-----------------------------------------------------------2------|
G|------2---------2----4--2---------------------------2--4----------|
D|------------4-------------4--0--2---------------------------------|
A|------------------------------------------------------------------|
E|------------------------------------------------------------------|

e|------------------------------------------------------------------|
B|--3----2---3----2-------------------------------------------------|
G|-------------------4---2---4----2---------------------------------|
D|--------------------------------------4---0----2--0----0---2------|
A|------------------------------------------------------------------|
E|------------------------------------------------------------------|

e|------------------------------------------------------------------|
B|------------------------------------------------------------------|
G|------------------------------------------------------------------|
D|--4----2---4----2---0--------------------0------0-----------------|
A|-----------------------2--0----2-------------------0----2---------|
E|------------------------------------------------------------------|
Play Riff1x2 
then
This bit
e|------------------------------------------------------------------|
B|------------------------------------------------------------------|
G|--------------------2-------0-----------------------4-------2-----|
D|---0----------------4-------2-----------------------5-------4-----|
A|---------0-----0-----------------------0------0-------------------|
E|------------------------------------------------------------------|

e|------------------------------------------------------------------|
B|------------------------------------------------------------------|
G|---------------------6-------4----------6------6------------------|
D|---------------------7-------5----------7------7----7-------------|
A|----------0-----0-----------------------------------9-------------|
E|----------------------------------------------------------
>> Registreer, speel & download <<
Meld nu aan en speel de rest van Shadows - Theme For Young Lovers

>> Registreer, speel & download <<
--------|

then to this:

e|--------10-9-7-9----7---------------------------------------------|
B|-------------------------------------7--5-----5-------------------|
G|-------------------------------------------7---------7------------|
D|------------------------------------------------------------------|
A|------------------------------------------------------------------|
E|------------------------------------------------------------------|

e|------------------------------------------------------------------|
B|--7---5-------5---------------------------------------------------|
G|----------7--------7--7\6-----------------------------------------|
D|------------------------------------------------------------------|
A|------------------------------------------------------------------|
E|------------------------------------------------------------------|



then to this brigde thing:
Palm Mute 
e|------------------------------------------------------------------|
B|-----------------------------------------------------10x----------|
G|------------9x---11x--9x----------------------9x-11x-----11x------|
D|----9x--12x---------------12x---9x---12x--12x------------------12x|
A|-12x--------------------------------------------------------------|
E|------------------------------------------------------------------|

e|---------------------------------------------------9--10--9-10--9-|
B|-----10------10--12--10------------------10---12------------------|
G|-11------11--------------11-------9-------------------------------|
D|-----------------------------12-----------------------------------|
A|------------------------------------------------------------------|
E|------------------------------------------------------------------|

e|------------------------------------------------------------------|
B|-12--10--12--10---------------------------------------------------|
G|-------------------11-----9------------9/11---9---11--9-----------|
D|-----------------------12----12--12------12--------------12--9----|
A|---------------------------------------------------------------12-|
E|------------------------------------------------------------------|

e|------------------------------------------------------------------|
B|------------------------------------------------------------------|
G|------------------------------------------------------------------|
D|-9----12--12------------------------------------------------------|
A|------------------------------------------------------------------|
E|------------------------------------------------------------------|


e|--------10-9-7-9----7---------------------------------------------|
B|-------------------------------------7--5-----5-----7-------------|
G|-------------------------------------------7----------------------|
D|------------------------------------------------------------------|
A|------------------------------------------------------------------|
E|------------------------------------------------------------------|

e|--------10-9-7-9----7------------------------------------------10-|
B|-------------------------------------7--5-----5-----5---------10--|
G|-------------------------------------------7----------------11----|
D|-----------------------------------------------------------12-----|
A|------------------------------------------------------------------|
E|------------------------------------------------------------------|

More info

Comments Shadows - Theme For Young Lovers - tab

trikker

Trikker 2013-12-06

Waarom staan er geen chords erbij zoals bij apache, zodat je overgang beter hoort. groetjes, trikker