• Streaming gitaar liedjes spelen
  • Leer gitaar spelen & gitaarlessen
  • 80.000 leden
Wonderful Land - The Shadows

Intro: speel x4
E|--15--13-12------------|
B|-------------15-13-15--|
D|-----------------------|
G|-----------------------|
A|-----------------------|
E|-----------------------|

Verse 1
E|-----------------------------------------------------------------------|
B|-----------------------------------------------------------------------|
G|------------------------------------------------------10-10------------|
D|--5---5--7-7--4------7---7--10-10--5------10--12--14---------14--12--10|
A|----5-----------5------8-------------7---------------------------------|
E|-----------------------------------------------------------------------|
                                                     W\bar bend
E|------------------------------------------------------------------------|
B|-----------------------------------------------------'6'----------------|
G|-----------------9------------9-------14--14--12--7-------5-5-----------|
D|--12--12-12-12-----10-----------10-----------------------------6-5----5-|
A|----------------------12--10-------12-------------------------------7---|
E|------------------------------------------------------------------------|
                             Verse 2
E|-------------------------||---------------------------------------------|
B|-------------------------||---------------------------------------------|
G|--4---------4---------4--||---------------------------------------------|
D|----5-----5---5-----5---5||----5--7-7--4-----7----7--10-10--5---10-12-14|
A|--------7---------7------||--5-----------5------8-------------7---------|
E|-------------------------||---------------------------------------------|
                                    Chorus
E|--------------------------------||---------------------------------------|
B|--------------------------------||--x13-x12---------x13-x10-x8-----------|
G|--------------------------------||----------x12-x14------------x9-x7-----|
D|--10-10-------------------------||-----------------------------------x10-|
A|---------14-12-10-12--12-12-12--||---------------------------------------|
E|--------------------------------||---------------------------------------|
     x = palm muted
E|----------------------------------------------------------------------|
B|--x13-x12-
>> Registreer, speel & download <<
Meld nu aan en speel de rest van Shadows - Wonderfull Land

>> Registreer, speel & download <<
--------x13-x10-x8--x17-x15-x12-x13-x15-x13-----------------|
G|----------x12-x14--------------------------------------x16-x14--------|
D|----------------------------------------------------------------14-17-|
A|----------------------------------------------------------------------|
E|----------------------------------------------------------------------|
                                 Verse 3
E|------------------------------||--------------------------------------|
B|------------------------------||--------------------------------------|
G|------4---------4---------4---||--------------------------------------|
D|----5---5-----5---5-----5---5-||----5--7-7--4-----7---7--10-10--5-----|
A|--7---------7---------7-------||--5-----------5-----8-------------7---|
E|------------------------------||--------------------------------------|
                                        Chorus
E|-------------------------------------------||---------------------------|
B|-------------------------------------------||--x13-x12---------x13-10-x8|
G|------------10-10--------------------------||----------x12-x14----------|
D|--10-12-14---------14-12-10--12--12-12-12--||---------------------------|
A|-------------------------------------------||---------------------------|
E|-------------------------------------------||---------------------------|

E|------------------------------------------------------------------------|
B|--------------x13-x12---------x13-x10-x8---x17-x15-x12-x13-x15-x13------|
G|--x9-x7---------------x12-x14--------------------------------------x16--|
D|--------x10-------------------------------------------------------------|
A|------------------------------------------------------------------------|
E|------------------------------------------------------------------------|
                                              Intro repeat till fade  
E|-------------------------------------------||--15--13-12-----------|
B|-------------------------------------------||------------15-13-15--|
G|--x14-------------12-16-12-------12-16-12--||----------------------|
D|------14-17----14-------------14-----------||----------------------|
A|-------------------------------------------||----------------------|
E|-------------------------------------------||----------------------|

More info