• Streaming gitaar liedjes spelen
  • Leer gitaar spelen & gitaarlessen
  • 80.000 leden
Sinterklaas Zie ginds komt de stoomboot.
Standard E-A-D-G-B-E

E|------------------|-----------------|------------------|------------------|
B|------------------|-----------------|------------------|------------------|
G|----0--0--4--2--2-|--5--------2--0--|----0--0--4--222--|--5--------2--0---|
D|-0----------------|-----4--4--------|-0----------------|-----4--4---------|
A|------------------|-----------------|------------------|------------------|
E|------------------|-----------------|------------------|------------------|

E|------------------|-----------------|---------------------|------------------|
B|-3--------3-------|-3---------------|-------------------3-|------------------|
G|----2--2-----4--4-|----5--5--4--2---|----0--0--2-4-4/5----|--4-----5--2------|
D|------------------|-----------------| 0-------------------|-----5--------4--5|
A|------------------|-----------------|---------------------|------------------|
E|------------------|-----------------|---------------------|------------------|

E|------------------|-----------------|------------------|------------------|
B|------------------|-----------------|------------------|------------------|
G|----0--0--4--2--2-|--5--------2--0--|----0--0--4--222--|--5--------2--0---|
D|-0----------------|-----4--4--------|-0----------------|-----4--4---------|
A|------------------|-----------------|------------------|------------------|
E|------------------|-----------------|------------------|------------------|

E|------------------|-----------------|---------------------|------------------|
B|-3--------3-------|-3---------------|-------------------3-|------------------|
G|----2--2-----4--4-|----5--5--4--2---|----0--0--2-4-4/5----|--4-----5--2------|
D|------------------|-----------------| 0-------------------|-----5--------4--5|
A|------------------|-----------------|---------------------|------------------|
E|------------------|-----------------|---------------------|------------------|

Zie ginds komt de stoomboot uit Spanje weer aan.
 Hij brengt ons Sint-Nicolaas ik zie hem al staan.
 Hoe huppelt zijn paardje het dek op en neer,
 hoe waaien de wimpels al heen en al weer. 

 Zijn knecht staat te lachen en roept ons reeds toe:
 "Wie zoet is krijgt lekkers,wie stout is de roe!
 "Och lieve Sint Niklaas, kom ook eens bij mij,
 en rijd toch ons huisje niet stilletjes voorbij. 



________________________________________________________________________________________




Sinterklaasje Bonne, Bonne, Bonne

E|------------------------------------------------------------------------------------------|
B|--1--1--3--3--1--3-1--------1--1--3--3--1--3-1---------------------------3--1-------------|
G|---------------------3--2----------------------3--2-----3--3--3--0--3--3------3--2--0-----|
D|--------------------------3-------------------------3---------------------------------3~--|
A|------------------------------------------------------------------------------------------|
E|------------------------------------------------------------------------------------------|

Sinterklaasje Bonne, Bonne, Bonne
Gooi wat in mijn-, regentonne,
Gooi wat in mijn laarsje,
Dank u, Sinterklaasje....




_____________________________________________________________________________________________________





Sinterklaas Kapoentje,

Sinterklaas Kapoentje,
gooi wat in mijn schoentje,
gooi wat in mijn laarsje,
dank u, Sinterklaasje....

E|---------0--0---------------0--0-------------------------0------------------|
B|--3--3--------3--0--3--3----------3--0--1--1--1-----1--1----3--1--0---------|
G|-------------------------------------------------2-------------------2--0---|
D|---------------------------
>> Registreer, speel & download <<
Meld nu aan en speel de rest van Sint & Piet - Sinterklaas Liedjes

>> Registreer, speel & download <<
-------------------------------------------------|
A|----------------------------------------------------------------------------|
E|----------------------------------------------------------------------------|

___________________________________________________________________________________
Sinterklaas is jarig


E|----------3---0-0-3-2-0---------0---------3-2-0---|
B|--3-3-3-3---3-----------3---0-1---3-0-------------|
G|--------------------------2-----------2-2---------|
D|--------------------------------------------------|
A|--------------------------------------------------|
E|--------------------------------------------------|


E|-----------0-----0-2-------3-2-2-2-0--------------|
B|--3-0-1-3----1-3-----3-0-3-------------0-3-1------|
G|-------------------------------------2-------2-0--|
D|--------------------------------------------------|
A|--------------------------------------------------|
E|--------------------------------------------------| herhaal dit een paar keer!

Sinterklaas is jarig!
Ik zet mijn schoen alvast klaar.
Licht dat hij hem vol doet met,
ja wist ik het maar.
Hier zet ik wat water
en wat hooi voor 't paard.
Want dat trouwe beestje
is dat heus wel waard.


Als de kleintjes slapen,
komt de goede Sint;
die de brave kinderen 
het allermeeste bemind.
het paardje, zwaar beladen,
voert hij met zich voort
en zijn knecht vertel hem wat hij heeft gehoort.

Toos is ongehoorzaam;
Jantje welleens lui
en de kleine piet
heeft vaak een boze bui 
Ik was laatst ook ondeugend
of hij dat ook weet?
Ik mag warempel hopen
dat hij het maar vergeet!

_____________________________________________________________________________________


e--------0-2-3-----0-------------0-2-3-------0-----------------------------------
B--3-3-3-------0-0---3-1-0-3-3-3-------0-0-0---3-1-----0-----3-0-0-3-1-1-3---0---
G--------------------------------------------------2-0---2-2---------------2-----
D--------------------------------------------------------------------------------
A--------------------------------------------------------------------------------
E--------------------------------------------------------------------------------

e-------------3-2-2-0-0---------0-2-3-----0-------------0-2-3-------0-------------
B--0----3-0-0-----------3-3-3-3-------0-0---3-1-0-3-3-3-------0-0-0---3-1---------
G---2-2-------------------------------------------------------------------2--0----
D---------------------------------------------------------------------------------
A---------------------------------------------------------------------------------
E---------------------------------------------------------------------------------



De zak van Sinterklaas, 
Sinterklaas, Sinterklaas, 
De zak van Sinterklaas, 
o jongenens, jongens 
het is zo`n baas! 
Daar stopt hij, daar stopt hij, 
daar stopt hij blij van zin. 
De hele, de hele, 
de hele wereld in! 
De zak van Sinterklaas, 
Sinterklaas, Sinterklaas, 
De zak van Sinterklaas, 
o jongenens, jongens 
het is zo`n baas! 

Hij is voor groot en klein, 
groot en klein, groot en klein, 
Hij is voor groot en klein 
voorzien van taai en marsepein. 
En bergen, en bergen, 
En bergen suikergoed, 
Zo lekker, zo lekker, 
Zo lekker en zo zoet. 
Hij is voor groot en klein, 
groot en klein, groot en klein, 
Hij is voor groot en klein 
voorzien van taai en marsepein. 

Maar onder in die zak, 
in die zak, in die zak, 
Maar onder in die zak 
daar ligt het hele grote pak, 
Voor het lieve, voor het zoete, 
voor het lieve zoete kind. 
Zeg was jij, zeg was jij, 
dit jaar gehoorzaam vrind? 
Maar onder in die zak, 
in die zak, in die zak, 
Maar onder in die zak 
daar ligt het hele grote pak.

More info

Comments Sint & Piet - Sinterklaas Liedjes - tab

lauraavb

Lauraavb 2013-11-20

wat leuk! klopt het gedeelte bij sinterklaas is jarig wel? bij de helft van tweede stukje 0-1-3-0-2-3-0-3. is dat niet te hoog? Groetjes


JanH

JanH 2013-11-20

@lauraavb idd, ik zou ook nog een 2 op de G snaar spelen tussen de 1 en de 3


darm87

Darm87 2012-12-31

EEN TIP ALS JE SNAAR TRILT !!:

zet je vigner bijna op de fret zo krijg je een vaster geluid laat ons maar zeggen


darm87

Darm87 2012-12-04

ik heb, zie ginds komt de stoomboot geprobeer. het ging best wel goed. maar bij de 2en en de 4en geeft mijn gitaar soms een dof geluid. de snaar trilt niet lekker zeg maar. hoort dit? of wat doe ik fout?


darm87

Darm87 2012-11-18

ja kan handig zijn komen er nog meer bij.

 

Gr: resh.


darm87

Darm87 2012-11-17

vet handig


Meer Sint & Piet songs

Sint & Piet - Sinterklaas Liedjes