• Streaming gitaar liedjes spelen
  • Leer gitaar spelen & gitaarlessen
  • 75.000 leden
       Daar      wordt aan    de          
E------------------0---------------- 
B-------3---------------3-----1----- 
G----------------------------------- 
D----------------------------------- 
A----------------------------------- 
E----------------------------------- 

  deur       ge  -   klopt,
E----------------------------------- 
B--0-------------------------------- 
G------------0---------0------------ 
D----------------------------------- 
A----------------------------------- 
E----------------------------------- 

  hard       ge  -   klopt,
E----------------------------------- 
B----------------------------------- 
G--2-------------------------------- 
D------------0---------0------------ 
A----------------------------------- 
E----------------------------------- 

  zacht     ge  -   klopt
E----------------------------------- 
B--0-------------------------------- 
G-----------0---------0------------- 
D----------------------------------- 
A----------------------------------- 
E---------------------
De rest van dit nummer alleen voor Gitaartabs leden! Maak gratis Gitaartabs account aan . 
Gitaar Tabs

Download, print en speel de Tab ♪ Sinterklaas - Daar Wordt Aan De Deur Geklopt

Meld je aan en print, download of speel binnen 15 sec mee Tab ♫ Sinterklaas - Daar Wordt Aan De Deur Geklopt.
Reeds 70.000 gitaristen zijn je voorgegaan.

Gratis Aanmelden Gitaartabs

Artiesten

Sinterklaas

Song information

Naam: Daar Wordt Aan De Deur Geklopt
Album:
Notatie: Tab (TAB)
Category: kinderliedjes
Niveau:

Statistiek

Downloads: 28.914
Commentaren: 24 Comments

Credits

Geplaat door: Micheltje
Geschreven door: Micheltje
Datum: 2008-06-10

Comments Sinterklaas - Daar Wordt Aan De Deur Geklopt - tab

henknouwens

Henknouwens 2017-11-03

leuk en simpel , toch maar de akkoorden dan kan ik hem samenspelen met iemand anders, b.v.d.


JanH

JanH 2015-11-21

in akkoorden vind je hem hier: Sinterklaas: daar wordt aan de deur geklopt (akkoorden)


darm87

Darm87 2012-11-07

zou ik hem alsjeblieft in akkoorden mogen? dankje


darm87

Darm87 2011-11-24

hoe download je :$


Merel_D

Merel_D 2011-11-15

Mag ik de akkoorden eens proberen?


darm87

Darm87 2011-11-15

akkoorden please???


Jacobus

Jacobus 2011-11-15

Ik kan hier niet veel mee, dus ik ook graag de accoorden dat vind ik al moeilijk genoeg. Maar er staan al zo veel berichtjes en ik zie ze nog niet....Hopelijk komt overal.... dus ook de accoorden bij te staan, want er zijn er velen zoals ik...MvG en ga a.u.b. door met plaatsen...(maar wel met acoorden.....)


Martinos

Martinos 2010-12-05

Hey,

Leuk nummer, voor mij ook GRAAG de akoorden! :)

 

Gr,


clausjuhh

Clausjuhh 2010-12-05

mag ik m ook in akkoorden? thanxx goeie tab trouwens ;P


dethoshow

Dethoshow 2010-11-13

leuk


Sisters_

Sisters_ 2010-11-13

wil je dit please ook in akkoorden doen =) x


job1997

Job1997 2010-11-09

Goede tabb!! =D, Mag ik hem ook in akkoorden...? Dankuu..


ctjuh

Ctjuh 2010-02-09

I love sinterklaas =p


wesley-ah9

Wesley-ah9 2009-11-25

cool leuk mag ik hem ook in akkoorden


jertom63

Jertom63 2009-10-28

hoi op onze site http://www.geergreetje-gitaarles.nl staat onder lessen een video les van dit nummer het is les 153 misschien kan het wat helpen groetjes geer en greetje


winnie

Winnie 2009-10-26

k zou hem ook liever in akkoorden zien (A)


quicky

Quicky 2009-10-25

eazyyyyyyyyyyy shit


alytt13

Alytt13 2008-11-29

cool. wil je um pleaz ook in akkoorden doen Grijns


nodenx

Nodenx 2008-11-27

leuk!


marco473

Marco473 2008-11-24

lolol een liedje van sinterklaas. Geschrokken
zal mijn buurjongen wel leuk vinden, ook een lkkr makkelijk liedje om te leren Tong


anneliesb

Anneliesb 2008-11-06

yeah!!


superdodo10

Superdodo10 2008-11-06

jeeej nog een sinterklaas tab! Lachen nu heb ik wel weer genoeg of ff te oefenen denk ik Tong


GuitarHERO

GuitarHERO 2008-10-04

heej wat leuk =]
zou ik hem ook in akkoorden mogen?
alvast bedankt =]


GuitarHERO

GuitarHERO 2008-09-07

ewa! dankje voor de tab, mag ik hem ook in de akkoorden plz? dankjeuhhhh! Grijns