• Streaming gitaar liedjes spelen
  • Leer gitaar spelen & gitaarlessen
  • 75.000 leden
De melodie:

e:-------------------------------------------------------------------------
b:------8-8-11-11-8------------9-------------------------------------------
g:--8-8-------------8-10-10-10---7-10-8-8-8--------------------------------
d:-------------------------------------------------------------------------
a:-------------------------------------------------------------------------
E:-------------------------------------------------------------------------

e:-------------------------------------------------------------------------
b:------8-8-11-11-8------------9-------------------------------------------
g:--8-8-------------8-10-10-10---7-10-8-8-8--------------------------------
d:-------------------------------------------------------------------------
a:-------------------------------------------------------------------------
E:------------------
De rest van dit nummer alleen voor Gitaartabs leden! Maak gratis Gitaartabs account aan . 
Gitaar Tabs

Download, print en speel de Tab ♪ Sinterklaas - Jongens Heb Je T Al Vernomen

Meld je aan en print, download of speel binnen 15 sec mee Tab ♫ Sinterklaas - Jongens Heb Je T Al Vernomen.
Reeds 70.000 gitaristen zijn je voorgegaan.

Gratis Aanmelden Gitaartabs

Wat vind jij van deze song? Sinterklaas - Jongens Heb Je T Al Vernomen


Plaats opmerkingen e.o. suggestie voor Sinterklaas - Jongens Heb Je T Al Vernomen