• Streaming gitaar liedjes spelen
  • Leer gitaar spelen & gitaarlessen
  • 75.000 leden
Slash (ft mike shadows) 
Nothing to say.

Tunning:Full Step Down.


INTRO
d|------------------------------------------------------------------|
A|------------------------------------------------------------------|
F|------------------------------------------------------------------| x2
C|------------------------------------------------------------------|
G|----------6-5~-5-6-4--------------6-5~-5-6-4----------------------|
D|-4~-3h4-7------------7---4~-3h4-7------------7--------------------|


d|-11--11--11--11--10--10--10--10--11--11--11--11--13---------------|
A|-14b-14b-14b-14b-13b-13b-13b-13b-14b-14b-14b-14b-16b~-------------|
F|------------------------------------------------------------------| 
C|------------------------------------------------------------------|
G|------------------------------------------------------------------|
D|------------------------------------------------------------------|

d|------------------------------------------------------------------|
A|------------------------------------------------------------------|
F|------------------------------------------------------------------| x4
C|------------------------------------------------------------------|
G|-----7-----10-----7-----9-----6/7---------------------------------|
D|-0-7---0-7----0-7---0-7---0-7-------------------------------------|
   * *   * *    * *   * *   * *

d|------------------------------------------------------------------|
A|------------------------------------------------------------------|
F|------------------------------------------------------------------| 
C|------------------------------------------------------------------|
G|-2---2---2---2---2---2---2---2------------------------------------|
D|-0---0---0---0---0---0---0---0------------------------------------|


d|------------------------------------------------------------------|
A|------------------------------------------------------------------|
F|------------------------------------------------------------------| x4
C|------------------------------------------------------------------|
G|-----7-----10-----7-----9-----6/7---------------------------------|
D|-0-7---0-7----0-7---0-7---0-7-------------------------------------|
   * *   * *    * *   * *   * *


VERSE

d|------------------------------------------------------------------|
A|------------------------------------------------------------------|
F|------------------7---5--5-4--------------------------------------| x1
C|------------------7---5--5-4--------------------------------------|
G|------------------5---3--3-2--------------------------------------|
D|-0000000000000000-------------------------------------------------|  
   ****************

d|------------------------------------------------------------------|
A|------------------------------------------------------------------|
F|----------------------------------7---5--5-4----------------------| x2
C|----------------------------------7---5--5-4----------------------|
G|----------------------------------5---3--3-2----------------------|
D|-00000000000000000000000000000000---------------------------------|
   ********************************

d|------------------------------------------------------------------|
A|------------------------------------------------------------------|
F|----------------------------------7---5---------------------------| x1
C|----------------------------------7---5--5-7----------------------|
G|----------------------------------5---3--5-7----------------------|
D|-00000000000000000000000000000000--------3-5----------------------|
   ********************************


PRE CHORUS
d|-------------------------|      d|--------------------------------|
A|-------------------------|      A|--------------------------------|
F|-7-7--7-7--7-7--9-xx-6/7-| x2   F|-12-12--12-12--12-12--14--11/12-| x2
C|-x-x--x-x--x-x--x-xx-x-x-|      C|-x--x---x--x---x--x---x---x--x--|
G|-5-5--5-5--5-5--7-xx-4/5-
De rest van dit nummer alleen voor Gitaartabs leden! Maak gratis Gitaartabs account aan . 
Gitaar Tabs

Download, print en speel de Tab ♪ Slash - Nothing To Say

Meld je aan en print, download of speel binnen 15 sec mee Tab ♫ Slash - Nothing To Say.
Reeds 70.000 gitaristen zijn je voorgegaan.

Gratis Aanmelden Gitaartabs