• Streaming gitaar liedjes spelen
  • Leer gitaar spelen & gitaarlessen
  • 80.000 leden
Slash (ft mike shadows) 
Nothing to say.

Tunning:Full Step Down.


INTRO
d|------------------------------------------------------------------|
A|------------------------------------------------------------------|
F|------------------------------------------------------------------| x2
C|------------------------------------------------------------------|
G|----------6-5~-5-6-4--------------6-5~-5-6-4----------------------|
D|-4~-3h4-7------------7---4~-3h4-7------------7--------------------|


d|-11--11--11--11--10--10--10--10--11--11--11--11--13---------------|
A|-14b-14b-14b-14b-13b-13b-13b-13b-14b-14b-14b-14b-16b~-------------|
F|------------------------------------------------------------------| 
C|------------------------------------------------------------------|
G|------------------------------------------------------------------|
D|------------------------------------------------------------------|

d|------------------------------------------------------------------|
A|------------------------------------------------------------------|
F|------------------------------------------------------------------| x4
C|------------------------------------------------------------------|
G|-----7-----10-----7-----9-----6/7---------------------------------|
D|-0-7---0-7----0-7---0-7---0-7-------------------------------------|
   * *   * *    * *   * *   * *

d|------------------------------------------------------------------|
A|------------------------------------------------------------------|
F|------------------------------------------------------------------| 
C|------------------------------------------------------------------|
G|-2---2---2---2---2---2---2---2------------------------------------|
D|-0---0---0---0---0---0---0---0------------------------------------|


d|------------------------------------------------------------------|
A|------------------------------------------------------------------|
F|------------------------------------------------------------------| x4
C|------------------------------------------------------------------|
G|-----7-----10-----7-----9-----6/7---------------------------------|
D|-0-7---0-7----0-7---0-7---0-7-------------------------------------|
   * *   * *    * *   * *   * *


VERSE

d|------------------------------------------------------------------|
A|------------------------------------------------------------------|
F|------------------7---5--5-4--------------------------------------| x1
C|------------------7---5--5-4--------------------------------------|
G|------------------5---3--3-2--------------------------------------|
D|-0000000000000000-------------------------------------------------|  
   ****************

d|------------------------------------------------------------------|
A|------------------------------------------------------------------|
F|----------------------------------7---5--5-4----------------------| x2
C|----------------------------------7---5--5-4----------------------|
G|----------------------------------5---3--3-2----------------------|
D|-00000000000000000000000000000000---------------------------------|
   ********************************

d|------------------------------------------------------------------|
A|------------------------------------------------------------------|
F|----------------------------------7---5---------------------------| x1
C|----------------------------------7---5--5-7----------------------|
G|----------------------------------5---3--5-7----------------------|
D|-00000000000000000000000000000000--------3-5----------------------|
   ********************************


PRE CHORUS
d|-------------------------|      d|--------------------------------|
A|-------------------------|      A|--------------------------------|
F|-7-7--7-7--7-7--9-xx-6/7-| x2   F|-12-12--12-12--12-12--14--11/12-| x2
C|-x-x--x-x--x-x--x-xx-x-x-|      C|-x--x---x--x---x--x---x---x--x--|
G|-5-5--5-5--5-5--7-xx-4/5-|  >   G|-10-10--10-10--10-10--12--9-/10-|
D|-------------------------|      D|--------------------------------|
  

CHORUS

d|------------------------------------------------------------------|
A|------------------------------------------------------------------|
F|-5-----7----------------------------------------------------------| x3
C|-5-----7----------------------------------------------------------|
G|-3-----5------5-----5-----5-----5-----4/5-------------------------|
D|----------0-7---0-7---0-7---0-7---0-7-----------------------------|
            * *   * *   * *   * *   * *

d|------------------------------------------------------------------|
A|------------------------------------------------------------------|
F|-5----------------------------------------------------------------| x1
C|-5-----7-----7-----9----------------------------------------------|
G|-3-----4-----5-----6----------------------------------------------|
D|------------------------------------------------------------------|

LEAD GUITAR BREAK!!

d|------------------------------------------------------------------|
A|--------------------------------------------------------------7h8-|
F|-----------------------------------------------------7h8p7h10-----| 
C|-------------------5h6p5----5h6h8-5-6/8-6h8/9-7h8h10--------------|
G|-4-5-7-4-5-7-5-6-8-------h8---------------------------------------|
D|------------------------------------------------------------------|
   * * * * * * * * *    

d|--------------------7-----7h8h10p8h7-----7h6p7h10p7-10p8p7-----7--|
A|-p7----7h8h9-7h8h10---h10------------h10-------------------h10----|
F|----10------------------------------------------------------------| 
C|------------------------------------------------------------------|
G|------------------------------------------------------------------|
D|------------------------------------------------------------------|
                
d|--------------------------------------------------------
>> Registreer, speel & download <<
Meld nu aan en speel de rest van Slash - Nothing To Say

>> Registreer, speel & download <<
----------|
A|-10p8p7-10p8p7----7-----------------------------------------------|
F|---------------h9---h9p8p7-9~-------------------------------------| 
C|------------------------------------------------------------------|
G|------------------------------------------------------------------|
D|------------------------------------------------------------------| 

VERSE

d|------------------------------------------------------------------|
A|------------------------------------------------------------------|
F|------------------7---5--5-4--------------------------------------| x1
C|------------------7---5--5-4--------------------------------------|
G|------------------5---3--3-2--------------------------------------|
D|-0000000000000000-------------------------------------------------|  
   ****************

d|------------------------------------------------------------------|
A|------------------------------------------------------------------|
F|----------------------------------7---5--5-4----------------------| x2
C|----------------------------------7---5--5-4----------------------|
G|----------------------------------5---3--3-2----------------------|
D|-00000000000000000000000000000000---------------------------------|
   ********************************

d|------------------------------------------------------------------|
A|------------------------------------------------------------------|
F|----------------------------------7---5---------------------------| x1
C|----------------------------------7---5--5-7----------------------|
G|----------------------------------5---3--5-7----------------------|
D|-00000000000000000000000000000000--------3-5----------------------|
   ********************************

PRE CHORUS
d|-------------------------|      d|--------------------------------|
A|-------------------------|      A|--------------------------------|
F|-7-7--7-7--7-7--9-xx-6/7-| x2   F|-12-12--12-12--12-12--14--11/12-| x2
C|-x-x--x-x--x-x--x-xx-x-x-|      C|-x--x---x--x---x--x---x---x--x--|
G|-5-5--5-5--5-5--7-xx-4/5-|  >   G|-10-10--10-10--10-10--12--9-/10-|
D|-------------------------|      D|--------------------------------|
  

CHORUS

d|------------------------------------------------------------------|
A|------------------------------------------------------------------|
F|-5-----7----------------------------------------------------------| x3
C|-5-----7----------------------------------------------------------|
G|-3-----5------5-----5-----5-----5-----4/5-------------------------|
D|----------0-7---0-7---0-7---0-7---0-7-----------------------------|
            * *   * *   * *   * *   * *

d|------------------------------------------------------------------|
A|------------------------------------------------------------------|
F|-5----------------------------------------------------------------| x1
C|-5-----7-----7-----9----------------------------------------------|
G|-3-----4-----5-----6----------------------------------------------|
D|------------------------------------------------------------------|

SOLO

d|------------------------------------------------------------------|
A|------------------------------------------------------------------|
F|-9~-11/12-11-9-7/9-7-7\5-5~-4-5\4~--------------------------------| 
C|-x--x--x--x--x-x-x-x-x-x-x--x-x-x--------0h2p0h2p0h2p0h2p0h2p0h2p-|
G|-7~-9-/10-9--7-5/7-5-5\3-3~-2-3\2~--------------------------------|
D|-----------------------------------0------------------------------|


d|------------------------------------------------------------------|
A|------------------------------------------------------------------|
F|------------------------------------------------------------------| 
C|-0h2p0h2p0h2p0h2/4h5p4h5p4----h4h5h7p5p4h5h7p5p4----5h6p5h7-4h7p4-|
G|---------------------------h7--------------------h7---------------|
D|------------------------------------------------------------------|


d|------------------------------------------------------------------|
A|-------------------------------------------5h6p5----5-------------|
F|----------------------4h5p4----4h5h7-5h6h7-------h7---7-5h7/9-7h9-| 
C|-h5p4---5h6p5h6h7-5h7-------h7------------------------------------|
G|------7-----------------------------------------------------------|
D|------------------------------------------------------------------|


LYRICS

(feat. M. Shadows)


 We seem so lost and jaded
 Well what a price to pay
 Fear can be overstated,
 and you seem infatuated
 with finding who's to blame.

 While it can seem so hard now,
 I got a feeling we ain't meant to live this way.

 Don't tell me it's too late,
 cause I feel it too, we all love to hate
 and let others lead the way.

 Some searching to find
 That love (life?) with a new piece of mind.

 And still we push further away,
 Singing our songs of yesterday.
 While so much still stands in our way,
 Voices with nothing to say.

 Some feel that life's a favour,
 While some don't have the time.
 Wash up and kiss the alter,
 All hail the mighty father,
 but love will keep you blind.

 Same questions we keep asking,
 Won't hear the answers cause we're scared of what we'll find

 We try and compensate through our troubled faith that should keep us safe
 and keep searching for a sign.

 Some searching to find
 That love (life?) with a new piece of mind.

 And still still we march further away,
 Singing our songs of yesterday.
 While so much still stands in our way,
 Voices with nothing to say.

 There wont be another day, the (no?) changing of the seasons,
 And no one's gonna save us from the lies.

 The greatest story ever told,
 Is only what you make it.
 There will be struggle and fear,
 All by design

 And still we march further away (We've been so logicated)
 Singing our songs of yesterday (Nothing's got all the point, the blame?)
 While so much still stands in our way (Yeahhhh!)
 Voices with nothing to say  


More info