• Streaming gitaar liedjes spelen
  • Leer gitaar spelen & gitaarlessen
  • 75.000 leden
Slash You're A Lie album (Apocalyptic Love)
Tunning: half step down.


         Intro (Versie 1)                 Intro (Versie 2)

        |-----------------|               |-----------------|
        |-----------------| intro 1x  of  |-----------------| intro 2  1x 
        |---6-------------|               |-----------------|
        |-4-6-7-2-5-4-2-4-|               |---6-------------|
        |-4-4-7-2-5-4-2-4-|               |-4-4-7-2-5-5-2-4-|           
        |-2---5-0-3-2-0-2-|               |-2---5-0-3-2-0-2-|


        |-------------|-------------|-------------|---------|
        |-------------|-------------|-------------|---------| 2x
        |-------------|-------------|-------------|-(4)-----|
        |-6/9---------|-6/9---------|-6/9---------|--4--(4)-|
        |-4/7-2-4-3-2-|-4/7-2-4-3-2-|-4/7-2-4-3-2-|--2---4--|
        |-----0-2-1-0-|-----0-2-1-0-|-----0-2-1-0-|------2--|
       

        |--------|--------|--------|---------|
        |--------|--------|--------|---------|
        |-6/9-9~-|-6/9-9~-|-6/9-9~-|-(4)-----|
        |-6/9----|-6/9----|-6/9----|--4--(4)-|
        |--------|--------|--------|--2---4--|
        |--------|--------|--------|------2--|


        |---|---|---|---|
        |-5-|-4-|-4-|-2-|
        |-6-|-5-|-4-|-3-|
        |-6-|-6-|-4-|-4-|  rhythm deze 2 speelt slash niet!!
        |-4-|-3-|-2-|-4-|                maar is het rhythm!!
        |---|---|---|---|


        |---|---|---|---|
        |-5-|-4-|-4-|-2-|  rhythm
        |-6-|-5-|-4-|-3-|
        |-6-|-6-|-4-|-4-|
        |-4-|-3-|-2-|-4-|
        |---|---|---|---|


        |---------|---------|------|
        |-77-55---|-77-55---|-77-5-|
        |-------6-|-------6-|------|
        |---------|---------|------|
        |---------|---------|------|
        |---------|---------|------|


        |---------|---------|------|
        |-55-44---|-55-44---|-55-4-|
        |-------5-|-------5-|------|
        |---------|---------|------|
        |---------|---------|------|
        |---------|---------|------|


        |---------|---------|------|
        |-77-55---|-77-55---|-77-5-|
        |-------6-|-------6-|------|
        |---------|---------|------|
        |---------|---------|------|
        |---------|---------|------|


        |---------|---------|------|
        |-99-77---|-99-77---|-99-7-|
        |-------6-|-------6-|------|
        |---------|---------|------|
        |---------|---------|------|
        |---------|---------|------|


        |---------|---------|------|
        |-77-55---|-77-55---|-77-5-|
        |-------6-|-------6-|------|
        |---------|---------|------|
        |---------|---------|------|
        |---------|---------|------|


        |---------|---------|------|
        |-55-44---|-55-44---|-55-4-|
        |-------5-|-------5-|------|
        |---------|---------|------|
        |---------|---------|------|
        |---------|---------|------|


        |---------|---------|------|
        |-77-55---|-77-55---|-77-5-|
        |-------6-|-------6-|------|
        |---------|---------|------|
        |---------|---------|------|
        |---------|---------|------|


        |---------|---------|------|
        |-99-77---|-99-77---|-99-7-|
        |-------6-|-------6-|------|
        |---------|---------|------|
        |---------|---------|------|
        |---------|---------|------|


        |-------------|------------|---------|
        |-1212-1010---|1212-1010---|-1212-10-|
        |-----------9-|----------9-|---------|
        |-------------|------------|---------|
        |-------------|-----
De rest van dit nummer alleen voor Gitaartabs leden! Maak gratis Gitaartabs account aan . 
Gitaar Tabs

Download, print en speel de Tab ♪ Slash - You're A Lie

Meld je aan en print, download of speel binnen 15 sec mee Tab ♫ Slash - You're A Lie.
Reeds 70.000 gitaristen zijn je voorgegaan.

Gratis Aanmelden Gitaartabs

Comments Slash - You're A Lie - tab

kenworth

Kenworth 2012-12-18

OK daar wacht ik dan even op....


darm87

Darm87 2012-12-16

tekst zet ik nog in de tab!