• Streaming gitaar liedjes spelen
  • Leer gitaar spelen & gitaarlessen
  • 80.000 leden
Dit is mijn eerste tab, ik hoop dat jullie het wat vinden,
Als je fouten ziet laat dan een comment achter:)

6x INTRO 

Gitaar 1

E|------------------------------------------------------------------
A|--9---------9---------9--------------9----------9-----------------
D|-----11--------11--------11-----11---------11---------11----------
G|---------8---------8---------9---------9----------9---------------
B|------------------------------------------------------------------
E|------------------------------------------------------------------
                                                                   

E|------------------------------------------------------------------
A|---------11---------11------------------11----------11------------
D|-----11---------11---------11-------11----------11---------11-----
G|--9----------9----------9--------9----------9----------9----------
B|------------------------------------------------------------------
E|------------------------------------------------------------------



1x Middel 

Gitaar 1

E|--7------4------0------------------------------------------------
A|--9------6------2------------------------------------------------
D|--9------6------2------------------------------------------------
G|-----------------------------------------------------------------
B|-----------------------------------------------------------------
E|-----------------------------------------------------------------

Gitaar 2
E|-----------------------------------------------------------------
A|--4------6------9------2-----------------------------------------
D|--x------x------x------x-----------------------------------------
G|--6------8------11-----4-----------------------------------------
B|-----------------------------------------------------------------
E|-----------------------------------------------------------------



2x INTRO

Gitaar 1

E|-----------------------------------------------------------------
A|--9---------9---------9-------------9---------9------------------
D|-----11--------11--------11-----11--------11--------11-----------
G|---------8---------8---------9---------9---------9---------------
B|-----------------------------------------------------------------
E|-----------------------------------------------------------------
                                                                   

E|-----------------------------------------------------------------
A|---------11---------11----------------11---------11--------------
D|-----11---------11---------11-----11---------11---------11-------
G|--9----------9----------9------9----------9----------9-----------
B|-----------------------------------------------------------------
E|-----------------------------------------------------------------



1x MIDDEL

Gitaar 1

E|--7------4------0-----------------------------------------------
A|--9------6------2-----------------------------------------------
D|--9------6------2-----------------------------------------------
G|----------------------------------------------------------------
B|----------------------------------------------------------------
E|----------------------------------------------------------------

Gitaar 2
E|----------------------------------------------------------------
A|--4------6------9------2----------------------------------------
D|--x------x------x------x----------------------------------------
G|--6------8------11-----4----------------------------------------
B|----------------------------------------------------------------
E|----------------------------------------------------------------



4x REFR 

Gutaar 1+2

E|--7------4------2------0----------------------------------------
A|--9------6------4------2----------------------------------------
D|--9------6------4------2----------------------------------------
G|----------------------------------------------------------------
B|----------------------------------------------------------------
E|----------------------------------------------------------------



1x MIDDEL, een beetje dempen

Gitaar 1

E|--7------4------0-----------------------------------------------
A|--9------6------2-----------------------------------------------
D|--9------6------2-----------------------------------------------
G|----------------------------------------------------------------
B|----------------------------------------------------------------
E|----------------------------------------------------------------



2x INTRO

Gitaar 1

E|----------------------------------------------------------------
A|--9------
>> Registreer, speel & download <<
Meld nu aan en speel de rest van Snow Patrol - This Isn't Everything

>> Registreer, speel & download <<
---9---------9-------------9---------9-----------------
D|-----11--------11--------11-----11--------11--------11----------
G|---------8---------8---------9---------9---------9--------------
B|----------------------------------------------------------------
E|----------------------------------------------------------------
                                                                   

E|----------------------------------------------------------------
A|---------11---------11----------------11---------11-------------
D|-----11---------11---------11-----11---------11---------11------
G|--9----------9----------9------9----------9----------9----------
B|----------------------------------------------------------------
E|----------------------------------------------------------------



1x Middel 

Gitaar 1

E|--7------4------0-----------------------------------------------
A|--9------6------2-----------------------------------------------
D|--9------6------2-----------------------------------------------
G|----------------------------------------------------------------
B|----------------------------------------------------------------
E|----------------------------------------------------------------

Gitaar 2
E|----------------------------------------------------------------
A|--4------6------9------2----------------------------------------
D|--x------x------x------x----------------------------------------
G|--6------8------11-----4----------------------------------------
B|----------------------------------------------------------------
E|----------------------------------------------------------------




2x speelt alleen de piano, na 2 keer speel je


Gitaar 1+2

1x
E|-0-----7------4------2------0-----------------------------------
A|-2-----9------6------4------2-----------------------------------
D|-2-----9------6------4------2-----------------------------------
G|----------------------------------------------------------------
B|----------------------------------------------------------------
E|----------------------------------------------------------------


5x, na de eerste keer(als je wilt) kan je het piano riffje op de gitaar meespelen.

E|--7------4------2------0----------------------------------------
A|--9------6------4------2----------------------------------------
D|--9------6------4------2----------------------------------------
G|----------------------------------------------------------------
B|----------------------------------------------------------------
E|----------------------------------------------------------------

Dit is het piano riffje, maar als je wilt, kan je hem spelen op de 2e gitaar


E|----------------------------------------------------------------
B|--9--7------------------------------------------------9--9-------------
G|--------6--6--8--8----6--6--8--8 -----11--11(11)----------------
D|----------------------------------------------------------------
A|----------------------------------------------------------------
E|----------------------------------------------------------------


Tekst:

You can’t find the fall
So you can call it off
But it might be for the best
You can walk away anyway
Because you’ve nowhere else to go

Is he worth all this

Is it a simple yes
Cause if you have to think
It’s f*cked
Feels like you’ve loved him more
Than he loved you
And you wish you never met

Don’t kill love now
Don’t kill love
Don’t kill love now
Don’t kill love

Keeping up all night
And the night before
And you’ve lost count of drinks and time
And your friends keep calling worried sick
And there’s strangers everywhere

Don’t kill love now
Don’t kill love
Don’t kill love now
Don’t kill love

And in one little moment
It all implodes
This isn’t everything you are
Breath deep, plea in the silence
No sudden moves
This isn’t everything you are
Just take the hand that’s offered
And hold on tight
This isn’t everything you are
There’s joy not far from here, right
I know there is
This isn’t everything you are

When you took the call
How could you know
That he’d slipped away last night
Than you wish you’d went
Home days ago
To say goodbye, or just hello

Don’t kill love now
Don’t kill love
Don’t kill love now
Don’t kill love

And in one little moment
It all implodes
This isn’t everything you are
Breath deep, plea in the silence
No sudden moves
This isn’t everything you are
Just take the hand that’s offered
And hold on tight
This isn’t everything you are
There’s joy not far from here, right
I know there is
This isn’t everything you are

This isn’t everything you are…

More info