• Streaming gitaar liedjes spelen
  • Leer gitaar spelen & gitaarlessen
  • 80.000 leden
WHATEVER YOU WANT - STATUS QUO
Dit is de Orginele versie van ‘Whatever you want’ het gedeelte dat Rick Parfitt speelt.
INTRO
2x
e|---------3--------------------2------------3-----------|
B|-------1---1-1-p-0-1-------3-----3-------1---1-1-p-0-1-|
G|-----0------------------2----------2---0---------------|
D|---0-----------------0---------------0-----------------|
A|-------------------------------------------------------|
E|-------------------------------------------------------|

Als je het vorige stuk 2x hebt gespeeld speel je het stuk hieronder.

e|--------1-------1----2/5--5----|
B|------0-------0------3/6--6----|
G|----0-------0--------2/5--5----|
D|-------------------------------|
A|--3-------2--------------------|
E|-------------------------------|

e|--------------------------------------------------------|
B|--------------------------------------------------------|
G|-------------5~~---------5~~--------5~~------
>> Registreer, speel & download <<
Meld nu aan en speel de rest van Status Quo - Whatever You Want (ritme En Intro) Orgineel

>> Registreer, speel & download <<
---5~~-----|
D|--------------------------------------------------------|
A|--------------------------------------------------------|
E|----00--00--0---00--00--0---00--00--0--00--00--0--------|

LET OP!!! Nu moet je POWERCHORDS gaan gebruiken.

De akkoorden van het refrein en het verse zie je hieronder, dit is ook de goede volgorde maar luister naar de muziek om te horen op welk tempo het gespeeld moet worden.

 D]
e|----------------------------------------------------------|
B|----------------------------------------------------------|
G|-2-4-2-2-2---2-4-2-2-2---2-4-2-2-2--2-4-2-2-2--2-4-2-2-2--|
D|-0-0-0-0-0---0-0-0-0-0---0-0-0-0-0--0-0-0-0-0--0-0-0-0-0--|
A|----------------------------------------------------------|
E|----------------------------------------------------------|

  A]         D]
e|-----------2-|
B|-----------3-|
G|-----------2-|
D|-2-4-2-2-2---|
A|-0-0-2-3-0---|
E|-------------|


Veel succes!!!

More info

Comments Status Quo - Whatever You Want (ritme En Intro) Orgineel - tab

jurgen1910

Jurgen1910 2011-06-29

Klinkt nog niet heel lekker dat intro zo.

probeer eens een 3 op de e snaar dus D0,G0,B1,e3 klinkt vlgs. mij een stuk lekkerder.