• Streaming gitaar liedjes spelen
  • Leer gitaar spelen & gitaarlessen
  • 80.000 leden
Sting - Shape of my heart

Het hele liedje lang herhalen: 

e-5-----5-----4-----4------2-----2----2--1--|
B-----2-----------2------------0---0--------|
G-------------------------------------------|
D-4-4-----4---2-2------2-----0--------------|
A--------------------------2----------4--4--|
E-------------------------------------------|

e-5-----5-----4-----4------2-----2----2--1--|
B-----3-----------2------------0---0--------|
G-------------------------------------------|
D-4-4-----4---2-2------2-----0--------------|
A--------------------------2----------4--4--|
E-------------------------------------------|

e-----2---5-2--------0--------1-----2-2---2--2---|
B---0---0-----0------0--------------------2--2---|
G----------------------2----1---1---2-2---4--2---|
D-0---------------------------------0------------|
A----------------4-2------4---------------4------|
E--------------------------------------------2---|

Voor het geval dat je in de knoop komt met de vingerzettingen, staat hieronder de volgorde van de vingerzettingen.

1ste vingerzetting:
e-2---5---|
B-2-------|
G-2-------|
D-2--4----|
A---------|
E---------|

2de vingerzetting (Laat D4 los en schuif e5 naar e4):
e-2--4--|
B-2-----|
G-2-----|
D-2-----|
A-------|
E-------|

3de vingerzetting(D2 eentje omhoog en middelvinger op e2 plaatsen:

e-2---|
B-----|
G-----|
D-----|
A-2---|
E-----|

4de vingerzetting(Middelvinger later staan en 45 graden draaien. Tegelijk een keer met duim en wijsvinger tokkelen):

e-2----|
B------|
G------|
D------|
A----4-|
E------|

5de vingerzetting(Wijsvinger op e1 plaatsen. Tegelijk een keer met duim en wijsvinger tokkelen):
e-1-----|
B-------|
G-------|
D-------|
A----4--|
E-------|

6de vingerzetting(Als dit niet meteen lukt, probeer dan B3 1 seco
>> Registreer, speel & download <<
Meld nu aan en speel de rest van Sting - Shape Of My Heart

>> Registreer, speel & download <<
nde later te plaatsen dan de andere vingers:
e-2---5-|
B-2-3---|
G-2-----|
D-2--4--|
A-------|
E-------|

7de vingerzetting(e5 schuiven naar e4):
e-2--4--|
B-2-----|
G-2-----|
D-2-----|
A-------|
E-------|


8ste vingerzetting:


e-2-----|
B-------|
G-------|
D-------|
A-2-----|
E-------|

9de vingerzetting:

e-2-----|
B-------|
G-------|
D-------|
A----4--|
E-------|

10de vingerzetting:
e-1-----|
B-------|
G-------|
D-------|
A----4--|
E-------|

11de vingerzetting(wijsvinger schuiven van e1 naar e2):
e-2-----|
B-------|
G-------|
D-------|
A-------|
E-------|

12de vingerzetting(wijsvinger laten staan en pink op e5, na een tokkeltje op e5 mag pink meteen weg):
e-2--5--|
B-------|
G-------|
D-------|
A-------|
E-------|

13de vingerzetting:(wijsvinger laten staan)
e-2-----|
B-------|
G-------|
D-------|
A-------|
E-------|


14de vingerzetting(ringervinger op A4, een tokkeltje):
e-------|
B-------|
G-------|
D-------|
A----4--|
E-------|


15de vingerzetting(wijsvinger op A2, een tokkeltje):
e-------|
B-------|
G-------|
D-------|
A--2----|
E-------|


16de vingerzetting(middelvinger op G2):
e-------|
B-------|
G-2-----|
D-------|
A-------|
E-------|


17de vingerzetting(wijsvinger barre op e1, B1 en G1. Pink op E4. B1 speel je niet):
e-1-----|
B-1-----|
G-1-----|
D-------|
A----4--|
E-------|


18de vingerzetting(wijsvinger van e1, B1 en G1 schuiven naar e2, B2 en G2):
e-2-----|
B-2-----|
G-2-----|
D-------|
A-------|
E-------|


19de vingerzetting(Pink op G4 en Ringvinger op A5):
e-2-----|
B-2-----|
G-2-4---|
D-------|
A---4---|
E-------|


20ste vingerzetting(wijsvinger bare fret 2, A2 en D2 speel je niet):
e-2-----|
B-2-----|
G-2-----|
D-2-----|
A-2-----|
E-2-----|

More info

Comments Sting - Shape Of My Heart - tab

Gitaarheld

Gitaarheld 2010-02-23

;) danks


Tessie

Tessie 2010-02-23

GEWELDIG