• Streaming gitaar liedjes spelen
  • Leer gitaar spelen & gitaarlessen
  • 80.000 leden
Tabs voor www.gitaarttabs.nl
Artiest: Beatles
Title song: Blackbird
Album: Double Blanc
Words & Music by Lennon-Mac Cartney


e |-----------------------------------|--------------------------------------------------------------------------------------------|
B|-----0---------1-----------3-----|----12----------12-----------12----------12-------------12------------12--------|
G|----------0-----------0-----------|------------0--------------------------0----------------0-------------------------0-----|
D|------------------------------------|--------------------------------------------------------------------------------------------|
A|----------------0------------2----|----10------------------10------------------10---------------------10---------------|
E|-----3-----------------------------|--------------------------------------------------------------------------------------------|

e |----------------------------------|---------------------------------------------------------------------------------------|
B|-----0----------1----------3----|-----12---------12----------12----------12----------12------------12-------|
G|-----------0----------0----------|-------------0------------------------0--------------0-------------------------0---|
D|-----------------------------------|---------------------------------------------------------------------------------------|
A|-----------------0----------2----|-----10-----------------10-----------------10-------------------10-------------|
E|-----3----------------------------|---------------------------------------------------------------------------------------|

e |-----0---------3----------2---------5---------|-----3---------3--------3---------3---------3---------3--------|
B|---------------------------------------------------|---------------------------------------------------------------------|
G|------------0--------0-----------0--------0----|-----------0-----------------0----------0-------------------0----|
D|-----------------------------0--------------------|-----2--------------2--------------1-------------1---------------|
A|------3----------4--------------------6---------|---------------------------------------------------------------------|
E|---------------------------------------------------|---------------------------------------------------------------------|

e |----2----------3--------|------------------------------------------------------------------------|
B|--------------------------|-----5----------5---------5---------4----------4----------4--------|
G|----------0---------0---|-----------0-------------------0-----------0---------------------0---|
D|----0----------4--------|-------------------------------------------------------------------------|
A|--------------------------|-----3----------------3--------------3-----------------3-------------|
E|--------------------------|-------------------------------------------------------------------------|

e |---------------------------------------------------------------------|------------------------------------------------------------------|
B|----5----------5---------5---------4---------4----------4-------|----3--------3-------3---------2---------2---------2--------|
G|---------0-------------------0-----------0--------------------0---|---------0----------------0----------0--------------------0---|
D|----------------------------------------------------------------------|------------------------------------------------------------------|
A|----3----------------3--------------3---------------3-------------|----2-------------2-------------0---------------0-------------|
E|----------------------------------------------------------------------|------------------------------------------------------------------|

e |--------------------------------------------------------|-----0-------------------------------------------------|
B|----1-------1------1--------0-------0-------0------|----------------3---------2---------2--------2------|
G|---------0-------------0----------0--------------0---|----------0---------0----------0-----------------0--|
D|----0-----------0--------------------------------------|--------------------------------------------------------|
A|---------------------------------------------------------|-----3---------2---------0---------------0----------|
E|-------------------------------3-------------3---------|--------------------------------------------------------|

e |-----------------------------------------------------------|---------------------------------|
B|----1-------1------1-------0---------0--------0-------|-----0--------1----------3----|
G|---------0-------------0--------0--------------------0--|---------0----------0----------|
D|----0-----------0-----------------------------------------|--------------------------
>> Registreer, speel & download <<
Meld nu aan en speel de rest van The Beatles - Blackbird

>> Registreer, speel & download <<
-------|
A|------------------------------------------------------------|----------------0---------2----|
E |-----------------------------3----------3----------------|-----3--------------------------|

e |---------------------------------------------------------------------------------------|
B|-----12----------12----------12-----------12----------12-----------12-------|
G|--------------0-------------------------0-------------0------------------------0----|
D|----------------------------------------------------------------------------------------|
A|-----10-----------------10------------------10------------------10--------------|
E|----------------------------------------------------------------------------------------|

e |----0-------3---------2--------5---------|----3--------3--------3---------3--------3--------3-----------|----2---------3------|
B|----------------------------------------------|--------------------------------------------------------------------|-----------------------|
G|---------0--------0----------0-------0---|----------0-----------------0---------0----------------0---------|----------0-------0--|
D|-------------------------0------------------|-----2--------------2-------------1------------1-----------------|----0-----------------|
A|----3-------4--------------------6--------|---------------------------------------------------------------------|---------------4------|
E|---------------------------------------------|---------------------------------------------------------------------|-----------------------|

e |---------------------------------------------------------------|-----------------------------------------------------------------|
B|----5--------5--------5--------4----------4--------4------|----3--------3--------3---------2---------2--------2-------|
G|---------0----------------0-----------0------------------0--|---------0----------------0-----------0-----------------0----|
D|----------------------------------------------------------------|-----------------------------------------------------------------|
A|----3-------------3-------------3----------------3----------|----2-------------2--------------0---------------0-----------|
E|----------------------------------------------------------------|-----------------------------------------------------------------|

e |---------------------------------------------------------|-------------------------------------------|
B|----1------1------1--------0--------0-------0-------|----10-------8-------6-------5-------|
G|--------0--------------0---------0----------------0---|----------0--------0-------0------0---|
D|----0----------0----------------------------------------|------------------------------------------|
A|----------------------------------------------------------|-----8--------7-------5-------3-------|
E|------------------------------3-------------3-----------|------------------------------------------|

e |-------------------------------------------------------|-----------------------------------------|
B|----3-------3-------3-------5------5-------5------|----10-------8-------6------5-------|
G|--------0---------------0--------0--------------0---|----------0-------0-------0------0---|
D|--------------------------------------------------------|-----------------------------------------|
A|----1------------1-----------3-----------3----------|-----8--------7-------5------3-------|
E|--------------------------------------------------------|-----------------------------------------|

e |----------------------------------------------------------|----------------------------|
B|----3--------3-------3--------2-------2------2-------|----1------1------1------|
G|---------0---------------0---------0---------------0---|--------0-------------0---|
D|-----------------------------------------------------------|----0----------0----------|
A|----1-------------1------------0-------------0---------|----------------------------|
E|-----------------------------------------------------------|----------------------------|

En dan alles nog een keer spelen…. Is nie zo moeilijk als je hem doorhebt


Tekst:

Blackbird singing in the dead of night
Take these broken wings and learn to fly
All your life
You were only waiting for this moment to arise.

Blackbird singing in the dead of night
Take these sunken eyes and learn to see
All your life
You were only waiting for this moment to be free.

Blackbird fly Blackbird fly
Into the light of the dark black night.

Blackbird fly Blackbird fly
Into the light of the dark black night.

Blackbird singing in the dead of night
Take these broken wings and learn to fly
All your life
You were only waiting for this moment to arise
You were only waiting for this moment to arise
You were only waiting for this moment to arise

More info