• Streaming gitaar liedjes spelen
  • Leer gitaar spelen & gitaarlessen
  • 75.000 leden
E-------0>2-----3<2-----0>2--------------3-------------3---------
B-----------3-------3-------3---3--------3-3---3-------3-3--3----
G-0>2---------2-------2-------2--------0-----0-------0-----0-----
D-----0----------------------------------------------------------
A----------------------------------0>3------------0>2------------
E----------------------------------------------------------------

E-------0>2-----3<2------0>2---------------3--------------3--------
B-----------3-------3--------3---3---------3--------------3--3---3-
G-0>2---------2-------2--------2---------0---2---2-------------0---
D-----0--------------------------------2-------2--------2----------
A------------------------------------0--------------0>2------------
E------------------------------------------------------------------



Verse One

For this part of the verse play the above pattern beneath these words.


You bored me with your stories, I can't believe that I endured you for
as long as I did

I'm happy it's over, I'm only sorry that I didn't make a move before
you


Now there is another pattern for you to play under the next part of the
verse.

E-------0>2----------------3---------------3------3---3------
B-----------3---3----------3--3---3--------3-3---3-----3-----
De rest van dit nummer alleen voor Gitaartabs leden! Maak gratis Gitaartabs account aan . 
Gitaar Tabs

Download, print en speel de Tab ♪ The Corrs - I Never Loved You Anyway

Meld je aan en print, download of speel binnen 15 sec mee Tab ♫ The Corrs - I Never Loved You Anyway.
Reeds 70.000 gitaristen zijn je voorgegaan.

Gratis Aanmelden Gitaartabs

Artiesten

The Corrs

Song information

Naam: I Never Loved You Anyway
Album:
Notatie: Tab (TAB)
Category: Pop
Niveau:

Statistiek

Downloads: 2.881
Commentaren:

Credits

Geplaat door: JanH
Geschreven door: Gitaartabs
Datum: 2006-08-25