• Streaming gitaar liedjes spelen
  • Leer gitaar spelen & gitaarlessen
  • 75.000 leden
Nog 10 tab te gaan voor deze maand.
HOTEL CALIFORNIA 


  Bm9                                     A/B (an A works as well) 
|-9-------------------------------------|-2-------------------------------|
|-7------------2-3-5-7-7/8\7-5/7~~~~----|-02-------3-2--------------------|
|-7--4-4h6p4-4--------------------------|-2---2-4--------2-2/4------------|
|-7-------------------------------------|-02----------------------4/2-----|
|-9-------------------------------------|-02--------------------------5/7-|
|-7-------------------------------------|-2-------------------------------|


 Em                              ******REPEAT******          F#7
-7--------0------0------0------0|---7p0---10p0-You Play |-----7-6-7/9/10-9-10/12/14----|
-8------0------0------0------0--|--8-----8-----this part|---8--------------------------|
-9----0------2------4------7----|-9-----9------for a    |-9----------------------------|
-9--2------4------5------9------|--------------long time|------------------------------|
-X------------------------------|--------------|        |------------------------------|
-X------------------------------|--------------|        |------------------------------|
                                                           

*5 BARS OF PERCUSSION THEN PLAY:

  Bm9                                    A/B
|-9----2h3p2---2-2---2---|-------------|-2-----------------------
|-7----------5-----5---3-|-5p3---3-----|-02------3p2---2--2------
|-7--4-------------------|-----4---2/4-|-2---2-4-----4------2--4-
|-7----------------------|-------------|-02----------------------
|-9----------------------|-------------|-02----------------------
|-7----------------------|-------------|-2-----------------------


                                Em
-----------------7--9-10-9-10-|-12\----------0--------0--------0-
-----5-8--7-7-8h10------------|------------0--------0--------0---
-6-7--------------------------|----------0--------2--------4-----
------------------------------|-------2--------4--------5--------
------------------------------|----------------------------------
------------------------------|----------------------------------


                             F#7
-------0-7p0---10-12-10----|---9-9h10p9/7-7h9p7/6--3-2-2-2-3-2--0-2----------|
-----0------------------12-|----------------------------------------3--2-----|
---7-----------------------|---------------------------------------------4-3-|
-9-----------9-------------|-------------------------------------------------|
---------------------------|-------------------------------------------------|
---------------------------|-------------------------------------------------|


*THE FINGER PLUCKING FOR THE THE FIRST BIT
PLAY THE CHORDS AND PLUCK IT
(SOME OF THESE CHORDS ARE JAZZ CHORDS)

 Bm                   F#7              A                          E
|7------------7------|7------------7--|7-----------7-------------|7----7----------7--|
|7--------7-----7-7--|7--------7------|10---10------10-----------|7------7--------7--|
|7----7-----7---9----|9----9-----9----|9-------9-------9---------|7--7-----7------7--|
|9--9---9------------|8--8---8--------|7--7--------------7----7--|0-----------12-----|
|9-------------------|9---------------|0--------------------7----|0------------------|
|0-------------------|0---------------|0-------------------------|0------------------|


 G                          D                    Em                    F#7   
|7-------------7-----------|10--------10--------|7------------7-------|7-----------7--|
|8---------8------------8--|7-----7------7------|8--------8------7-7--|7-------7------|
|7-----7-----7---7-7h9-----|7-------7------7----|9----9-----9----9----|9---9-----9----|
|9---9---9-----------------|7---7------------7--|9--9---9-------------|8--8--8--------|
|10------------------------|0-------------------|7--------------------|9--------------|
|0-------------------------|0-------------------|0--------------------|0--------------|


*This is the bass run which leads into the song.  
*THERES TWO GUITARAISTS ONE PLUCKING AND ONE DOING THE BASS RUN.                                                   E7

|----------|----------------|-----------|hit these|------------0---|
|----------|----------------|-----------|notes    |--------0-------|
|----------|----------------|-----------|while    |1----1-----1----|
|------2-4-|-2-----0h2p0----|-----------|playing  |-------0--------|
|
De rest van dit nummer alleen voor Gitaartabs leden! Maak gratis Gitaartabs account aan . 
Gitaar Tabs

Download, print en speel de Tab ♪ The Eagles - Hotel California

Meld je aan en print, download of speel binnen 15 sec mee Tab ♫ The Eagles - Hotel California.
Reeds 70.000 gitaristen zijn je voorgegaan.

Gratis Aanmelden Gitaartabs

Wat vind jij van deze song? The Eagles - Hotel California

Comments The Eagles - Hotel California - tab

gladysvs

Gladysvs 2011-11-10

http://www.youtube.com/watch?v=5dwMdI19HkM&feature=related voor iedereen die het niet snapt ;P


110823

110823 2011-06-12

Is de schrijver lui geweest of zoo??? Nie zo slim de helt van de snaren weglaten!!!


JamesCarpenter

JamesCarpenter 2011-03-09

ik snap het voor geen meter


JamesCarpenter

JamesCarpenter 2011-03-09

maar ik ga het proberenKnipoog:kilian:


JochemMuffels

JochemMuffels 2011-01-09

ik snap er geen bal van

 


decius

Decius 2009-06-01

dit is ook het 2de liedje wat ik heb geleerd dus het moet kunnen als beginner hoor Knipoog


Fable

Fable 2008-10-20

Hmmm, leuk vooruit streven om die snel te gaan proberen, maar aangezien ik beginner ben is het misschien niet zo'n goed idee Beschaamd


Plaats opmerkingen e.o. suggestie voor The Eagles - Hotel California