• Streaming gitaar liedjes spelen
  • Leer gitaar spelen & gitaarlessen
  • 75.000 leden
itel: Dirty Magic 
Artiest: The Offspring 
Album: Ignition 
Capo:  
Tuning: E-A-D-G-B-E 
uitgezocht door:  spike


--------------------------------------------------------------------------------

Intro & verse  (guitar 1)
E|--------------------------------------------------------------------------|
B|--------------------------------------------------------------------------|
G|--------------------------------------------------------------------------|
D|--------------------------------------------------------------------------|
A|--------------7---------7---------10--------------9-----2---3-2---2---3-2-|
E|--0--3/5--5-5----5---5----5/8-8-8-----8--87--7-7---7-0---0-----0---0-----|

Guitar 2 (over verse) grad strum harder
E|-0-0-0-0-0-0-0-0-0-|-0-0-0-0---0-0-0-0-0-0-0-0-0-0-0-------------
B|-5-5-5-5-5-5-5-5-5-|-3-3-3-3/5-5-5-5-5-5-5-3-3-5-5-0-------------
G|-------------------|---------------------------------------------
D|-------------------|---------------------------------------------
A|-------------------|---------------------------------------------
E|-------------------|--------------------------
De rest van dit nummer alleen voor Gitaartabs leden! Maak gratis Gitaartabs account aan . 
Gitaar Tabs

Download, print en speel de Tab ♪ The Offspring - Dirty Magic

Meld je aan en print, download of speel binnen 15 sec mee Tab ♫ The Offspring - Dirty Magic.
Reeds 70.000 gitaristen zijn je voorgegaan.

Gratis Aanmelden Gitaartabs

Wat vind jij van deze song? The Offspring - Dirty Magic


Plaats opmerkingen e.o. suggestie voor The Offspring - Dirty Magic