• Streaming gitaar liedjes spelen
  • Leer gitaar spelen & gitaarlessen
  • 80.000 leden
Intro
|-----------------------------------|-----------------------------------|
|-----------------------------------|-----------------------------------|
|--4---4--4------2--4---4--4--9--7--|--4---4--4------2--4---4--4--9--7--|
|--4---4--4--4---2--4---4--4--9--7--|--4---4--4--4---2--4---4--4--9--7--|
|--2---2--2--4---0--2---2--2--7--5--|--2---2--2--4---0--2---2--2--7--5--|
|------------2----------------------|------------2----------------------|


|-----------------------------------|-----------------------------------|
|-----------------------------------|-----------------------------------|
|--4---4--4------2--4---4--4--9--7--|--4---4--4------2--4---------------|
|--4---4--4--4---2--4---4--4--9--7--|--4---4--4--4---2--4---------------|
|--2---2--2--4---0--2---2--2--7--5--|--2---2--2--4---0--2---------------|
|------------2----------------------|------------2----------------------|


Verse
|------7----7------7----7--|------7----7------7----7--|
|------7----7------7----7--|------7----7------7----7--|
|--------------------------|--------------------------|
|--------------------------|--------------------------|
|--------------------------|--------------------------|
|--------------------------|--------------------------|


|------7----7------7----7--|------7----7------7----7--|
|------7----7------7----7--|------7----7------7----7--|
|--------------------------|--------------------------|
|--------------------------|--------------------------|
|--------------------------|--------------------------|
|--------------------------|--------------------------|


|------7----7------7----7--|------7----7------7----7--|
|------7----7------7----7--|------7----7------7----7--|
|--------------------------|--------------------------|
|--------------------------|--------------------------|
|--------------------------|--------------------------|
|--------------------------|--------------------------|


|------7----7------7----7--|------7----7------7----7--|
|------7----7------7----7--|------7----7------7----7--|
|--------------------------|--------------------------|
|--------------------------|--------------------------|
|--------------------------|--------------------------|
|--------------------------|--------------------------|


Chorus
|-----------------------|-----------------------|-----------|-----------|
|-----------------------|-----------------------|-----------|-----------|
|------------9-10-9-10--|------------9-10-9-10--|-7-7-7---7-|-9-9-9-7---|
|--9---9--9--9-10-9-10--|--9---9--9--9-10-9-10--|-7-7-7-7-7-|-9-9-9-7-7-|
|--9---9--9--7--8-7--8--|--9---9--9--7--8-7--8--|-5-5-5-7-5-|-7-7-7-5-7-|
|--7---7--7-------------
>> Registreer, speel & download <<
Meld nu aan en speel de rest van The Offspring - Pretty Fly

>> Registreer, speel & download <<
|--7---7--7-------------|-------5---|---------5-|


|-----------------------|-----------------------|-----------|-----------|
|-----------------------|-----------------------|-----------|-----------|
|------------9-10-9-10--|------------9-10-9-10--|-7-7-7---7-|-7-9-7-9-7-|
|--9---9--9--9-10-9-10--|--9---9--9--9-10-9-10--|-7-7-7-7-7-|-7-9-7-9-7-|
|--9---9--9--7--8-7--8--|--9---9--9--7--8-7--8--|-5-5-5-7-5-|-5-7-5-7-5-|
|--7---7--7-------------|--7---7--7-------------|-------5---|-----------|


|-----------------------|-----------------------|-----------|-----------|
|-----------------------|-----------------------|-----------|-----------|
|------------9-10-9-10--|------------9-10-9-10--|-7-7-7---7-|-9-9-9-7---|
|--9---9--9--9-10-9-10--|--9---9--9--9-10-9-10--|-7-7-7-7-7-|-9-9-9-7-7-|
|--9---9--9--7--8-7--8--|--9---9--9--7--8-7--8--|-5-5-5-7-5-|-7-7-7-5-7-|
|--7---7--7-------------|--7---7--7-------------|-------5---|---------5-|


Post-Chorus
|-----------|-----------|-------------------|-----------------|
|-----------|-----------|-------------------|-----------------|
|-------7---|-------9---|-----11-10-9---7-9-|-----------------|
|-7-7-7-7-7-|-9-9-9-9-9-|-9-9-11-10-9-9-7-9-|-9---------------|
|-7-7-7-5-7-|-9-9-9-7-9-|-9-9--9--8-7-9-5-7-|-9---------------|
|-5-5-5---5-|-7-7-7---7-|-7-7---------7-----|-7---------------|


Intro
Verse
Chorus
Post-Chorus


Verse 3
|----------|----------|----------|----------|----------|----------|----------|
|----------|----------|----------|----------|----------|----------|----------|
|----------|----------|----------|----------|----------|----------|----------|
|----------|----------|----------|----------|--------9-|------7-9-|--------9-|
|----------|----------|----------|----------|--------9-|------7-9-|--------9-|
|----------|----------|----------|----------|--------7-|------5-7-|--------7-|


|----------|
|----------|
|----------|
|-x-x------|
|--x-x-----|
|---x-x----|


Intro
Chorus


Outro
|-----------|-----------|-----------|-----------|-----------|-----------|
|-----------|-----------|-----------|-----------|-----------|-----------|
|-------7---|-------9---|-------7---|-------9---|-------7---|-------9---|
|-7-7-7-7-7-|-9-9-9-9-9-|-7-7-7-7-7-|-9-9-9-9-9-|-7-7-7-7-7-|-9-9-9-9-9-|
|-7-7-7-5-7-|-9-9-9-7-9-|-7-7-7-5-7-|-9-9-9-7-9-|-7-7-7-5-7-|-9-9-9-7-9-|
|-5-5-5---5-|-7-7-7---7-|-5-5-5---5-|-7-7-7---7-|-5-5-5---5-|-7-7-7---7-|


|-------------------|-----------------|
|-------------------|-----------------|
|-----11-10-9---7-9-|-----------------|
|-9-9-11-10-9-9-7-9-|-9---------------|
|-9-9--9--8-7-9-5-7-|-9---------------|
|-7-7---------7-----|-7---------------|

More info

Comments The Offspring - Pretty Fly - tab

kenworth

Kenworth 2011-05-05

Ik mis de tekst