• Streaming gitaar liedjes spelen
  • Leer gitaar spelen & gitaarlessen
  • 80.000 leden
  e  -----------------------------------------------------------------------------------------------------
  b  -----------------------------------------------------------------------------------------------------
  g  -----------------------------------10------10-----10-------------------------------------------------
  D  ---2-x------------7----7-----------10------10-----10----10---10---10-------5----5----5---------------
  A  ------------------7----7-----------8-------8------8-----10---10---10-------5----5----5---------------
  E  ------------------5----5--------------------------------8----8----8--------3----3----3---------------


  e  -------------------------------------------------------------------------------
  b  -------------------------------------------------------------------------------
  g  ---10 x------------------------------------------------------------------------
  D  ---------------3-----------5------5------5-------------------------------------
  A  ---------------3-----------5------5------5---------------
>> Registreer, speel & download <<
Meld nu aan en speel de rest van The Offspring - Self Esteem

>> Registreer, speel & download <<
----------------------
  E  ---------------1-----------3------3------3-------------------------------------

                  P.M


  g  -----------------------------------------------------------------------------------------------------------
  D  -----------------------------------------------------------------------------------------------------------
  A  -----------------------------------------------------------------3----3----3----3----3---------------------
  E  -------5----5----5----5----5-----------------1----1------------------------------------------3----3--------




































                                                                                                                                                                                                                                                                                                                                                                                                       

More info

Comments The Offspring - Self Esteem - tab

wesselentijmen

Wesselentijmen 2009-03-08

Type hier je commentaar


wesselentijmen

Wesselentijmen 2009-03-08

Type hier je commentaar