• Streaming gitaar liedjes spelen
  • Leer gitaar spelen & gitaarlessen
  • 80.000 leden

intro
e--------------------------------------------------------------------------
B--------------------------------------------------------------------------
G-----------------7--9-9------------------7--9-9------------------7--9-9--9
D-7-7-7-7-7-7-7-7-7--9-9--7-7-7-7-7-7-7-7-7--9-9--7-7-7-7-7-7-7-7-7--9-9--9
A7-7-7-7-7-7-7-7-5--7-7--7-7-7-7-7-7-7-7-5--7-7--7-7-7-7-7-7-7-7-5--7-7--7
E5-5-5-5-5-5-5-5---------5-5-5-5-5-5-5-5---------5-5-5-5-5-5-5-5----------
e----------
B----------
G----7-7---
D7--7-7--7
A-7--5-5--7
E-5-------5

bas gitaar

g
d
a
e5-5-5-5-5-5-5-5-5-5-5-5-5-5-5-5-5-5-5-5-5-5-5-5-5-5-5-5-5-5-5-5

e
B
G
D-14/7
A-14/7
E-12/5

e---------------------------------------------
>> Registreer, speel & download <<
Meld nu aan en speel de rest van The Ramones - Blitzrieg Pop

>> Registreer, speel & download <<
----------
B-------------------------------------------------------
G-7-7-7-7-7-7-7-7-7-7-7-7-7-7-7-7-9-9-9-9---------7--9-9
D-7-7-7-7-7-7-7-7-7-7-7-7-7-7-7-7-9-9-9-9-7-7-7-7-7--9-9
A-5-5-5-5-5-5-5-5-5-5-5-5-5-5-5-5-7-7-7-7-7-7-7-7-5--7-7
E-----------------------------------------5-5-5-5-------

e-------------------------------------------------------
B-------------------------------------------------------
G-7-7-7-7-7-7-7-7-7-7-7-7-7-7-7-7-----------------7--9-9
D-7-7-7-7-7-7-7-7-7-7-7-7-7-7-7-7-9-9-9-9-9-9-9-9-7--9-9
A-5-5-5-5-5-5-5-5-5-5-5-5-5-5-5-5-9-9-9-9-9-9-9-9-5--7-7
E---------------------------------7-7-7-7-7-7-7-7-------

en nu weer terug naar de intro 
no solos 
zo simpels is het




More info

Comments The Ramones - Blitzrieg Pop - tab

Henk Valcke

Henk Valcke 2017-08-26

De titel van de song moet zijn Blitzkrieg Bop en niet Blitzkrieg Pop


kenworth

Kenworth 2012-05-02

Zou je de tekst van het nr willen toevoegen?
Dan kunnen we de tab geheel compleet goed keuren.
Alvast bedankt


pieke007

Pieke007 2007-12-24

Grijns vet Lachebek