• Streaming gitaar liedjes spelen
  • Leer gitaar spelen & gitaarlessen
  • 75.000 leden


Intro/Pre-Chorus Riff:
e-------------------------------
B-------------------------------
G---------------------9-11------
D-9-11-11-11-11-11-11-9-11-9-11-
A-9-11-11-11-11-11-11-7-9--9-11-
E-7/9--9--9--9--9--9-------7-9--

Verse
e-----------------------
B-----------------------
G-------------------- 7-9-
D-7-9-9-9-9--9--7-9-7-9-
A-7-9-9-9-9--9--7-9-5-7-
E-5/7-7-7-7--7--5-7-----
  I don't wanna...

Post-Verse
e-----------------
De rest van dit nummer alleen voor Gitaartabs leden! Maak gratis Gitaartabs account aan . 
Gitaar Tabs

Download, print en speel de Tab ♪ The Ramones - Pinhead

Meld je aan en print, download of speel binnen 15 sec mee Tab ♫ The Ramones - Pinhead.
Reeds 70.000 gitaristen zijn je voorgegaan.

Gratis Aanmelden Gitaartabs

Wat vind jij van deze song? The Ramones - Pinhead


Comments The Ramones - Pinhead - tab

kenworth

Kenworth 2011-06-14

Lastige tekst ;-)


Plaats opmerkingen e.o. suggestie voor The Ramones - Pinhead