• Streaming gitaar liedjes spelen
  • Leer gitaar spelen & gitaarlessen
  • 80.000 leden


Intro/Pre-Chorus Riff:
e-------------------------------
B-------------------------------
G---------------------9-11------
D-9-11-11-11-11-11-11-9-11-9-11-
A-9-11-11-11-11-11-11-7-9--9-11-
E-7/9--9--9--9--9--9-------7-9--

Verse
e-----------------------
B-----------------------
G-------------------- 7-9-
D-7-9-9-9-9--9--7-9-7-9-
A-7-9-9-9-9--9--7-9-5-7-
E-5/7-7-7-7--7--5-7-----
  I don't wanna...

Post-Verse
e--------------------------------
B--------------------------------
G-9-9-9-9-9-9-9-9-9-9-9-9-9-9-9-9
D-9-9-9-9-9-9-9-9-9-9-9-9-9-9-9-9
A-7-7-7-7-7-7-7-7-7-7-7-7-7-7-7-7
E--------------------------------

Chorus
e-----------------------
>> Registreer, speel & download <<
Meld nu aan en speel de rest van The Ramones - Pinhead

>> Registreer, speel & download <<
---------
B--------------------------------
G--------------  7-----------------
D-9-9-9-9-9-9--7--7-7-7-7-7-7--4-
A-9-9-9-9-9-9--5--7-7-7-7-7-7--4
E-7-7-7-7-7-7-----5-5-5-5-5-5---2
  Gabba, gabba, hey...

Song Order
Intro/Pre-chorus x4
Verse x4
Post-Verse x1
Intro/Pre-Chorus x4
Chorus x2
Verse x1
Rest (D-U-M-B...)
Verse x1
Rest (D-U-M-B...)
Post Verse x1
Intro/Pre-Chorus x4
Chorus (repeat and fade out)

Lyrics
I don't wanna be a pinhead no more
I just met a nurse that I could go for
I don't wanna be a pinhead no more
I just met a nurse that I could go for

D-U-M-B, everyone's accusing me
D-U-M-B, everyone's accusing me

Gabba, gabba, hey


More info

Comments The Ramones - Pinhead - tab

kenworth

Kenworth 2011-06-14

Lastige tekst ;-)