• Streaming gitaar liedjes spelen
  • Leer gitaar spelen & gitaarlessen
  • 75.000 leden
--- intro ---
G - D - F(maj7) - C
G - D - F(maj7) - C

--- verse ---
G - D - F(maj7) - C
I gave you a hard time, I told you the news
G - D - F(maj7) - C
There's no I'm sorry's, cause there ain't no excuse
G - D - F(maj7) - C
The things I've been doing, the things that I say
G - D - F(maj7) - C
The road to ruin, between you and me

--- solo ---
e----------------------------------------------------
B-12p10\8----8/10-8---------------8-8h10-8-----------
G----------9--------7/9-7-----7/9--------------------
D----------------------------------------------------
A----------------------------------------------------
E----------------------------------------------------

e----------------------------------------------------
B-12p10\8-10---8------------------------------------
G-------------9------7-7/9\7-------------------------
D----------------------------------------------------
A----------------------------------------------------
E----------------------------------------------------

e-------12----10----14b15---------------------3------
B-----8----------12-----------12p10\8-10----8-3------
G-7/9-------------------------------------9---0------
D---------------------------------------------0------
A---------------------------------------------2------
E---------------------------------------------3------


--- verse ---
G - D - F(maj7) - C
My reasons for cheating, I don't know what to say
G - D - F(maj7) - C
maybe it's nature, havin' it's way
G - D - F(maj7) - C
You know that I love you, but that's easy to say
G - D - F(maj7) - C
You'd make me proud of you if you would stay

--- bridge ---
Am - Em - G - D
I promised you sunshine, I promised you, you'd be all mine
Am - Em - G - D
instead of the good times, a killer came and took your heart away

--- chorus ---
Am - Em - G - D
I gave you hard times, baby
Am - Em - G - D
De rest van dit nummer alleen voor Gitaartabs leden! Maak gratis Gitaartabs account aan . 
Gitaar Tabs

Download, print en speel de Tab ♪ The Scabs - Hard Times

Meld je aan en print, download of speel binnen 15 sec mee Tab ♫ The Scabs - Hard Times.
Reeds 70.000 gitaristen zijn je voorgegaan.

Gratis Aanmelden Gitaartabs

Artiesten

The Scabs

Song information

Naam: Hard Times
Album: Royalty In Exile
Notatie: Tab (TAB)
Category: Rock
Niveau: 2/10

Statistiek

Downloads: 26.980
Commentaren: 1 Comment

Credits

Geplaat door: Dimi505
Geschreven door: Gitaartabs
Datum: 2008-09-18

Comments The Scabs - Hard Times - tab

dejoeri

Dejoeri 2010-08-09

zou er mij iemand het ritme kunnen geven aub ??


Meer The Scabs songs

The Scabs - Hard Times