• Streaming gitaar liedjes spelen
  • Leer gitaar spelen & gitaarlessen
  • 75.000 leden
Kevin Bruin

The White Stripes - 7 Nation Army

Intro:

Bas
 
G---------------------------------------------|
D---------------------------------------------|
A-----7------7-----10-----7---5---3---2-------|12X
E---------------------------------------------|

Bridge:

Bas

G------------------------------------|
D------------------------------------|
A------------------------------------|
E---3-3-3-3-3-3-3-5-5-5-5-5-5-5------|
| Gtr.                               |
e------------------------------------|
B------------------------------------|
G------------------------------------
De rest van dit nummer alleen voor Gitaartabs leden! Maak gratis Gitaartabs account aan . 
Gitaar Tabs

Download, print en speel de Tab ♪ The White Stripes - 7 Nation Army

Meld je aan en print, download of speel binnen 15 sec mee Tab ♫ The White Stripes - 7 Nation Army.
Reeds 70.000 gitaristen zijn je voorgegaan.

Gratis Aanmelden Gitaartabs

Comments The White Stripes - 7 Nation Army - tab

bryan10123

Bryan10123 2009-10-26

|--------------------------------------------------------------------|
|--------------------------------------------------------------------|
|--------------------------------------------------------------------|
|--------------------------------------------------------------------|
|--9-9-12-9----------------9-9-12-9----------------------------------|
|-----------12-10-9-----------------12-10-12-10-9--------------------|


nog altijd beste, speel maar mee met nummer


bono_and_amy

Bono_and_amy 2009-03-27

wat ook gaat is
--0--0--3--0----------0--0--3--0-----------------
-------------3--1--0--------------3--1--3--1--0--

makkelijker Knipoog