• Streaming gitaar liedjes spelen
  • Leer gitaar spelen & gitaarlessen
  • 75.000 leden
Intro:
--------------------------------|
--1--1--1--1--1--1--1--1--1--1--|
--2--2--2--2--0--2--2--2--2--0--|
--2--2--2--2--0--2--2--2--2--0--|
--------------------------------|
--------------------------------|
Couplet:
--------------------------------1--1--1--1--1--1--1--1--1--1--|
--1--1--1--1--1--1--1--1--1--1--3--3--3--3--0--3--3--3--3--0--|
--2--2--2--2--0--2--2--2--2--0--2--2--2--2--0--2--2--2--2--0--|
--2--2--2--2--0--2--2--2--2--0--------------------------------|
--------------------------------------------------------------|
--------------------------------------------------------------|
  Hey little apple blossom

-----------------------------------------------------------|
--1--1--1--1--1--1--1--1--1--1--------------1--1--1--1--1--|
--2--2--2--2--0--2--2--2--2--0--------------2--2--2--2--0--|
--2--2--2--2--0--2--2--2--2--0--2--2--------2--2--2--2--0--|
--------------------------------2--2--2--2-----------------|
--------------------------------------3--3-----------------|
   All the ones....

--------------------------------1--1--1--1--1--1--1--1--1--1--|
--1--1--1--1--1--1--1--1--1--1--3--3--3--3--0--3--3--3--3--0--|
--2--2--2--2--0--2--2--2--2--0--2--2--2--2--0--2--2--2--2--0--|
--2--2--2--2--0--2--2--2--2--0--------------------------------|
--------------------------------------------------------------|
--------------------------------------------------------------|
  Come and Tell me what.....

-----------------------------------------------------------|
--1--1--1--1--1--1--1--1--1--1--------------1--1--1--1--1--|
--2--2--2--2--0--2--2--2--2--0--------------2--2--2--2--0--|
--2--2--2--2--0--2--2--2--2--0--2--2--------2--2--2--2--0--|
--------------------------------2--2--2--2-----------------|
--------------------------------------3--3-----------------|
   A little light is blinking


Refrein:
---1-----1--------------0-----------------------------0--------|
---3--3-----3-----1--1-----1-----------0--------1--1-----1-----|
---2-----------2--2-----------2-----------0-----2-----------2--|
------------------2--------------2--2--------2--2--------------|
---------------------------------2-----------------------------|
---------------------------------------------------------------|
  Lots of girls....


---1-----1--------------0---------------------------|
---3--3-----3-----1--1-----1------------
De rest van dit nummer alleen voor Gitaartabs leden! Maak gratis Gitaartabs account aan . 
Gitaar Tabs

Download, print en speel de Tab ♪ The White Stripes - Apple Blossom

Meld je aan en print, download of speel binnen 15 sec mee Tab ♫ The White Stripes - Apple Blossom.
Reeds 70.000 gitaristen zijn je voorgegaan.

Gratis Aanmelden Gitaartabs