• Streaming gitaar liedjes spelen
  • Leer gitaar spelen & gitaarlessen
  • 75.000 leden
  C   G    C   G    C   G    C   G   A
e----------------------------------------------------------------------
B-5-x---x--5-x---x--5-x---x--5-x---x-2-2-2-2-2-2-2-2-2-2-2-2-2-2-2-2-2-
G-5-x-5-x--5-x-5-x--5-x-5-x--5-x-5-x-2-2-2-2-2-2-2-2-2-2-2-2-2-2-2-2-2-
D-5-x-5-x--5-x-5-x--5-x-5-x--5-x-5-x-2-2-2-2-2-2-2-2-2-2-2-2-2-2-2-2-2-
A-3-x-5-x--3-x-5-x--3-x-5-x--3-x-5-x-0-0-0-0-0-0-0-0-0-0-0-0-0-0-0-0-0-
E---x-3-x----x-3-x----x-3-x----x-3-x----------------------------------- x4
  
                                           
e-----------------------------------
B-2-2-2-2-2-2-2-2-2-2-2-2-2-2-2-2-2-
G-2-2-2-2-2-2-2-2-2-2-2-2-2-2-2-2-2-
D-2-2-2-2-2-2-2-2-2-2-2-2-2-2-2-2-2-
A-0-0-0-0-0-0-0-0-0-0-0-0-0-0-0-0-0-
E-----------------------------------
 Dont you think Im bound to react now?


e----------------------------------------------------------------------
B-5-x---x--5-x---x--5-x---x--5-x---x-2-2-2-2-2-2-2-2-2-2-2-2-2-2-2-2-2-
G-5-x-5-x--5-x-5-x--5-x-5-x--5-x-5-x-2-2-2-2-2-2-2-2-2-2-2-2-2-2-2-2-2-
D-5-x-5-x--5-x-5-x--5-x-5-x--5-x-5-x-2-2-2-2-2-2-2-2-2-2-2-2-2-2-2-2-2-
A-3-x-5-x--3-x-5-x--3-x-5-x--3-x-5-x-0-0-0-0-0-0-0-0-0-0-0-0-0-0-0-0-0-
E---x-3-x----x-3-x----x-3-x----x-3-x-----------------------------------
                                   My fingers definitely turnin to black now
  
e------------------------------------
B-5-x---x--5-x---x--5-x---x--5-x---x-
G-5-x-5-x--5-x-5-x--5-x-5-x--5-x-5-x-
D-5-x-5-x--5-x-5-x--5-x-5-x--5-x-5-x-
A-3-x-5-x--3-x-5-x--3-x-5-x--3-x-5-x-
E---x-3-x----x-3-x----x-3-x----x-3-x-


e------------
B-5-----2--5-
G-5--5--2--5-
D-5--5--2--5-
A-3--5--0--3-
E----3-------
 Maybe Ill put my love on ice and ..........
                                             
e-----------------------------------
B-2-2-2-2-2-2-2-2-2-2-2-2-2-2-2-2-2-
G-2-2-2-2-2-2-2-2-2-2-2-2-2-2-2-2-2-
D-2-2-2-2-2-2-2-2-2-2-2-2-2-2-2-2-2-
A-0-0-0-0-0-0-0-0-0-0-0-0-0-0-0-0-0-
E----------------------------------- x3 
  My books are sittin at the top of .......

e----------------------------------------------------------------------
B-5-x---x--5-x---x--5-x---x--5-x---x-2-2-2-2-2-2-2-2-2-2-2-2-2-2-2-2-2-
G-5-x-5-x--5-x-5-x--5-x-5-x--5-x-5-x-2-2-2-2-2-2-2-2-2-2-2-2-2-2-2-2-2-
D-5-x-5-x--5-x-5-x--5-x-5-x--5-x-5-x-2-2-2-2-2-2-2-2-2-2-2-2-2-2-2-2-2-
A-3-x-4-x--3-x-4-x--3-x-4-x--3-x-4-x-0-0-0-0-0-0-0-0-0-0-0-0-0-0-0-0-0-
E---x-3-x----x-3-x----x-3-x----x-3-x-------
De rest van dit nummer alleen voor Gitaartabs leden! Maak gratis Gitaartabs account aan . 
Gitaar Tabs

Download, print en speel de Tab ♪ The White Stripes - Black Math

Meld je aan en print, download of speel binnen 15 sec mee Tab ♫ The White Stripes - Black Math.
Reeds 70.000 gitaristen zijn je voorgegaan.

Gratis Aanmelden Gitaartabs