• Streaming gitaar liedjes spelen
  • Leer gitaar spelen & gitaarlessen
  • 75.000 leden
E-------------|-------------|------------|------------|
B-------------|-------------|------------|------------|
G-------------|-------------|------------|------------|
D-------------|-------------|------------|-------3--5-|
A-----------1-|-------------|----------1-|-3--5-------|
E--3----1-3---|-1-----------|-3----1-3---|------------|
\                                                    /

/                                                      \
E-------------|-------------|------------|--------------|
B-------------|-------------|------------|--------------|
G-------------|-------------|------------|--------------|
D-------------|-------------|------------|-------3--0-3-|
A-----------1-|-----------1-|----------1-|-3--5---------|
E--3----1-3---|-1-----1-3---|-3----1-3---|--------------|
\                                                      /

Verse

/                                                    \
E-------------|-------------|------------|------------|
B-------------|-------------|------------|------------|
G-------------|-------------|------------|------------|
D-5-----------|-------------|------------|-------3--5-|
A-----------1-|-------------|----------1-|-3--5-------|
E---3---1-3---|-1-----------|-3----1-3---|------------|
\                                                    /

/                                                    \
E-------------|-------------|------------|------------|
B-------------|-------------|------------|------------|
G-------------|-------------|------------|------------|
D-------------|-------------|------------|-------3--5-|
A-----------1-|-----------1-|----------1-|-3--5-------|
E--3----1-3---|-1-----1-3---|-3----1-3---|------------|
\                                                    /

/                                                      \
E-------------|-------------|------------|--------------|
B-------------|-------------|------------|--------------|
G-------------|-------------|------------|--------------|
D-------------|-------------|------------|-------3--0-3-|
A-----------1-|-------------|----------1-|-3--5---------|
E--3----1-3---|-1-----------|-3----1-3---|--------------|
\                                                      /

/                                                      \
E-------------|-------------|------------|--------------|
B-------------|-------------|------------|--------------|
G-------------|-------------|------------|--------------|
D-5-----------|-------------|------------|-------3--0-3-|
A-----------1-|-----------1-|----------1-|-3--5---------|
E---3---1-3---|-1-----1-3---|-3----1-3---|--------------|
\                                                      /

Chorus

/                                                             \
E-----------------|---------------|---------------|------------|
B-----------------|---------------|---------------|------------|
G-----------------|---------------|---------------|------------|
D-5---------------|---------------|---------------|------------|
A-------3b(4)b3-1-|-----3b(4)b3-1-|-----3b(4)b3-1-|------------|
E---3-------------|-1-------------|-3-------------|-1--1--1--1-|
\                                                             /

/                                                             \
E-----------------|---------------|---------------|------------|
B-----------------|---------------|---------------|------------|
G------5b(7)b5-3--|-----5b(7)b5-3-|-----5b(7)b5-3-|------------|
D-----------------|-3-------------|-5-------------|-3--3--3--3-|
A-----------------|---------------|---------------|------------|
E--3--------------|---------------|---------------|------------|
\                                                             /

/                                                             \
E-----------------|---------------|---------------|------------|
B-----------------|---------------|---------------|------------|
G------5b(7)b5-3--|-----5b(7)b5-3-|-----5b(7)b5-3-|------------|
D--5--------------|-3-------------|-5-------------|-3--3--3--3-|
A-----------------|---------------|---------------|------------|
E-----------------|---------------|---------------|------------|
\                                                             /

/                                                             \
E-----------------|---------------|---------------|------------|
B-----------------|---------------|---------------|------------|
G------5b(7)b5-3--|-----5b(7)b5-3-|-----5b(7)b5-3-|------------|
D--5--------------|-3-------------|-5-------------|-3--3--3--3-|
A-----------------|---------------|---------------|------------|
E-----------------|---------------|---------------|------------|
\                                                             /

2nd Chorus

/                                                             \
E-----------------|---------------|---------------|------------|
B-----------------|---------------|---------------|------------|
G-----------------|---------------|---------------|------------|
D-5---------------|---------------|---------------|------------|
A-------3b(4)b3-1-|-----3b(4)b3-1-|-----3b(4)b3-1-|------------|
E---3-------------|-1-------------|-3-------------|-1--1--1--1-|
\                                                             /

/                                                             \
E-----------------|---------------|---------------|------------|
B-----------------|---------------|---------------|------------|
G------5b(7)b5-3--|-----5b(7)b5-3-|---
De rest van dit nummer alleen voor Gitaartabs leden! Maak gratis Gitaartabs account aan . 
Gitaar Tabs

Download, print en speel de Tab ♪ The White Stripes - Bleu Orchid

Meld je aan en print, download of speel binnen 15 sec mee Tab ♫ The White Stripes - Bleu Orchid.
Reeds 70.000 gitaristen zijn je voorgegaan.

Gratis Aanmelden Gitaartabs

Comments The White Stripes - Bleu Orchid - tab

kenworth

Kenworth 2012-07-11

Zou perfect zijn als er ook tekst erbij stond, dan kan ik het helemaal goed keuren en het speelt makkelijker voor de gitarist(e).