• Streaming gitaar liedjes spelen
  • Leer gitaar spelen & gitaarlessen
  • 75.000 leden
INTRO:

D--------------------------\-----|
B--------------------------------| \
G---------3-0--3--3-3-3-3--------|  \Played
D---------0---------------- -----|  4x
G-0----0-------------------------| /
D---3b---------------------------|
"I got a letter this mornin
What do ya reckon it read?
It said, "The gal you love is dead"

VERSE:

D--------------------|------5--------------|
B-5----5-3-3----5-0--|---------------------|
G-5----5-3-3----5-0--|-3-0--------0-0---0--|
D-5----5-3-3----5-0--|------------0-0---0--|
G-5----5-3-3----5-0--|------------0-0---0--|
D--------------------|----------------3----|
"I got a letter this mornin
What do you reckon it read?
Said, "Hurry, hurry, because the gal you love is dead"
D------5--------------|------5--------------|
B---------------------|---------------------|
G-3-0--------0-0---0--|-3-0--------0-0---0--|
D------------0-0---0--|------------0-0---0--|
G------------0-0---0--|------------0-0---0--|
D----------------3----|----------------3----|

Well, I packed up my suitcase
I took off down the road
When I got there she was
Layin' on the coolin' board
I packed up my suitcase
And I took off down the road
When I got there she was
A-layin' on the coolin' board

D----------------------------------------------|
B-------------------------------------/7--7/0--|
G-----------------------------------0-/7--7/0--|
D-----------------------------------0-/7--7/0--|
G----5-5-----3-3------2-2----1-1------/7--7/0--|
D-5-------3-------2--------1------0------------|

D--------5----------------------------------------------|
B--------0-0-3/0--3-0-3--0-3-0-/5--5--0-----------------|
G-3-0-----0-0-3/0--3-0-3--0-3-0-/5--5--0--3-0-----------|
D---------0-0-3/0--3-0-3--0-3-0-/5--5--0-------|--------|(Continues)
G----
De rest van dit nummer alleen voor Gitaartabs leden! Maak gratis Gitaartabs account aan . 
Gitaar Tabs

Download, print en speel de Tab ♪ The White Stripes - Death Letter

Meld je aan en print, download of speel binnen 15 sec mee Tab ♫ The White Stripes - Death Letter.
Reeds 70.000 gitaristen zijn je voorgegaan.

Gratis Aanmelden Gitaartabs