• Streaming gitaar liedjes spelen
  • Leer gitaar spelen & gitaarlessen
  • 75.000 leden
Intro:

E-------------|-------------|------------------|--------------|
B-------------|-------------|------------------|--------------|
G-------------|-------------|------------------|--------------|
D-------------|-------------|------------------|--------------|
A-9--9-9--9-9-|-7--7-7--7-7-|-12--12-12--12-12-|-2--2-2--2-2--|
E-7--7-7--7-7-|-5--5-5--5-5-|-10--10-10--10-10-|-0--0-0--0-0--|

Verse:

Fell In Love With A Girl...
E-------------|-------------|------------------|--------------|
B-------------|-------------|------------------|--------------|
G-------------|-------------|------------------|-------------o|
D-------------|-------------|------------------|-------------o|
A-9--9-9--9-9-|-7--7-7--7-7-|-12--12-12--12-12-|-2--2-2--2-2--|
E-7--7-7--7-7-|-5--5-5--5-5-|-10--10-10--10-10-|-0--0-0--0-0--|

She Turns And Says...
E-------------|-------------|------------------
De rest van dit nummer alleen voor Gitaartabs leden! Maak gratis Gitaartabs account aan . 
Gitaar Tabs

Download, print en speel de Tab ♪ The White Stripes - Fell In Love With A Girl

Meld je aan en print, download of speel binnen 15 sec mee Tab ♫ The White Stripes - Fell In Love With A Girl.
Reeds 70.000 gitaristen zijn je voorgegaan.

Gratis Aanmelden Gitaartabs