• Streaming gitaar liedjes spelen
  • Leer gitaar spelen & gitaarlessen
  • 75.000 leden
¨ICKY THUMP¨ The White Stripes

Intro and Verses 1(0:20) and 2 (1:18)

e|-----------------------------------------------------------------------|
B|-------------------------3---------------------------------3-----------|
G|-----------------------0-2-------------------------------0-2-----------|
D|-----------------------0-0--2-(2)------------------------0-0--2-(2)----|
A|-2--2--2--2--2--2--2-x-0-0--x-(-)--2--2--2--2--2--2--2-x-0-0--x-(-)----|
E|-0--0--0--0--0--0--0-x-0----0-(0)--0--0--0--0--0--0--0-x-0----0-(0)----|

Chorus

e|-------------------------------------------------------------------------|
B|-------------------------------------------------------------------------|
G|-----------------------------0----------------------5/7-(7)-6------0-----|
D|----5/7--5-4-0---------------0----------5/7--5-4-0------------7----0-----|
A|---------------5-(5)-4-------x-------------------------------------x-----|
E|(0)--------------------5---x-3---0--(0)--------------------------0-3-0---|


e|-----------------------------------------------------------------------|
B|-----------------------------------------------------------------------|
G|------------------------------0----------------------------------------|
D|-----5/7--5-4-0---------------0----------5/7--5-4-0-7--9--7-9/---------|
A|----------------5-(5)-4-------x---------------------5--7--5-7/--0------|
E|-(0)--------------------5---x-3---0--(0)---------------------------0---|

e|-------------------------------------------------------------------------|
B|-------------------------------------------------------------------------|
G|-----------------------------0----------------------5/7-(7)-6------0-----|
D|----5/7--5-4-0---------------0----------5/7--5-4-0------------7----0-----|
A|---------------5-(5)-4-------x-------------------------------------x-----|
E|(0)--------------------5---x-3---0--(0)--------------------------0-3-0---|

---------------------------------------------------------------------------| If you are 
the 2 verse don't do the 1st solo and go after the 1stsolo
---------------------------------------------------------------------------|

e|--------------------------------------------------------------------------|
B|--------------------------------------------------------------------------|
G|-----------------------------0--------------------------------------------|
D|----5/7--5-4-0---------------0----------5/7--5-4-0-7--9--7-9/-------------|
A|---------------5-(5)-4-------x---------------------5--7--5-7/---0-2---(2)-|
E|(0)--------------------5---x-3---0--(0)---------------------------0---(0)-|

                             1st Synth Solo(1st Verse
-----------------------------------------------------------------------------|
-------------------3-----------------------------------3---------------------|
-------------------2-----------------------------------2---------------------|
-----------------0-0--2----(2)-----------------------0-0---2---(2)-----------|
----(2)---(2)--x-0-0--x----(-)---2--2--2--2--2--2--x-0-0---x---(-)---2--2--2-|
----(0)---(0)--x-0----0----(0)---0--0--0--0--0--0--x-0-----0---(0)---0--0--0-|

------------------------|
---------------3--------|
---------------2--------|
-------------0-0---2----|back to the verse 2 and do the chorus again
--2--2--2--x-0-0---x----|
--0--0--0--x-0-----0----|

--------------------------------
INTERLUDE (FOR THE SECOND VERSE)
--------------------------------

e|--------------------------------------------------------------------------|
B|--------------------------------------------------------------------------|
G|-7-7-6----9--8----10
De rest van dit nummer alleen voor Gitaartabs leden! Maak gratis Gitaartabs account aan . 
Gitaar Tabs

Download, print en speel de Tab ♪ The White Stripes - Icky Thump

Meld je aan en print, download of speel binnen 15 sec mee Tab ♫ The White Stripes - Icky Thump.
Reeds 70.000 gitaristen zijn je voorgegaan.

Gratis Aanmelden Gitaartabs