• Streaming gitaar liedjes spelen
  • Leer gitaar spelen & gitaarlessen
  • 80.000 leden
[Intro]
e|---------0-|--1-----1-|--0---------0---|
B|--1--------|------3---|--------1-------|
G|-------2---|----2-----|------2---------|
D|-----2-----|--0-------|----2-----2-----|
A|--0--------|----------|--0---------0---|
E|-----------|----------|----------------|
 
e|--0---------|-1-----1---|-0----------------|
B|--------1---|-----1---1-|-------3p1----0---|
G|------2---2-|---2-------|-----0------0-----|
D|----2-------|-3---------|---2--------------|
A|--0---------|-----------|-3----------------|
E|------------|-----------|--------------3---|
 
[Extra]
e|--0---------|----------|------------|
B|--------1---|--0-----0-|--1---1---1-|
G|------2---2-|------0---|--------2---|
D|----2-------|----0-----|----2-------|
A|--0---------|----------|--0-------0-|
E|------------|--3-------|------------|
 
[Chorus]
e|--1-----1---|-0----------------------|
B|------3---3-|-------3p1--0-----1-3---|
G|----2-------|-----0---------
>> Registreer, speel & download <<
Meld nu aan en speel de rest van Tourist Lemc - Koning Liefde

>> Registreer, speel & download <<
-0-------|
D|--0---------|---2----------0---------|
A|------------|-3----------------0-2---|
E|------------|------------3-----------|
 
e|--1-----1---|--0------------------3-|
B|------3---3-|--------3p1--0-----0-0-|
G|----2-------|------0----------0-----|
D|--0---------|----2----------0-------|
A|------------|--3--------------------|
E|------------|-------------3-------3-|
 
e|--1-----1-----|-0------------------------|
B|------3---3---|-------3p1--0-----1-3-1-0-|
G|----2---------|-----0----------0---------|
D|--0-----------|---2----------0-----------|
A|--------------|-3----------------0-2-0---|
E|--------------|------------3-----------3-|
 
e|--1-----1---|-0-----------|---------------|
B|------3---3-|---------3---|---------------|
G|----2-------|-----0-----0-|--2------2---2-|
D|--0---------|---2---------|-------2---2---|
A|------------|-------------|--0----------0-|
E|------------|-0-----------|---------------|

More info

Meer Tourist Lemc songs

Tourist Lemc - Koning Liefde