• Streaming gitaar liedjes spelen
  • Leer gitaar spelen & gitaarlessen
  • 80.000 leden
Hier zijn wat bekende bluesfragmenten die heel makkelijk te spelen zijn

1:

E |----------------------------------------------------------------------------------------------|
B |----------------------------------------------------------------------------------------------|
G |----------------------------------------------------------------------------------------------|
D |------------------------------------------2-2--4-4--5-5--4-4--2-2--4-4--5-5--4-4--------------|
A |--2-2--4-4--5-5--4-4--2-2--4-4--5-5--4-4--0-0--0-0--0-0--0-0--0-0--0-0--0-0--0-0--------------|
E |--0-0--0-0--0-0--0-0--0-0--0-0--0-0--0-0------------------------------------------------------|

E |----------------------------------------------------|
B |----------------------------------------------------|
G |-2-2--4-4--5-5--4-4--2-2--4-4--5-5--4-4-------------|
D |-0-0--0-0--0-0--0-0--0-0--0-0--0-0--0-0-------------|
A |------------------------------
>> Registreer, speel & download <<
Meld nu aan en speel de rest van Traditioneel - Blues

>> Registreer, speel & download <<
----------------------|
E |----------------------------------------------------|
   
2:

E, Am, Open G, E, EE, EE


je kan ze ook samenvoegen wissel ze af met een B7 akkoord


3:          3×
   E |----------------------|
   B |----3----1------------|
   G |--4---4--1------------|
   D |------------5---------|
   A |----------------------|
   E |----------------------|

            2×
   E |----------------------|
   B |----8----7--5---------|
   G |--9---9--7--6---------|
   D |----------------------|
   A |----------------------|
   E |----------------------|

4: 
   Em, EmEm, EmEm,G,Am


5:
   Misschien een van de makkelijkste en grappigste. 
   Pak een pen, potlood of een stukje aluminium pijp en strijk er mee over de hoge E snaar en de B snaar en sla 
   de snaren maar aan.
   (Als je het vaak doet gaan je snaren kapot). 
   Komt er al een bluesy tune uit? blijf oefenen totdat je het hebt ;) 


More info

Comments Traditioneel - Blues - tab

darm87

Darm87 2012-01-16

echt een super blues


darm87

Darm87 2012-01-16

echt een super blues


rens4kirk

Rens4kirk 2011-02-03

yo kan iemand mij vertellen op welke gitaar ik dit moet spelen speel op een spaanse klinkt echt rot op deze gitaar THNX

ps hoe doe je smiles


rodyrocker

Rodyrocker 2008-11-29

heey kan iemand me vertellen wat
2 cijfers onder elkaar betekent Verbaasd :Lachebek


ArjanAJ

ArjanAJ 2008-07-29

Die 1e is een leuke! Kende er een andere variant van, waarbij je alleen de 2e en de 4e fret gebruikt, maar deze klinkt ook goed idd.. Knipoog

PS First Post Grijns


Sorayarkoestisch

Sorayarkoestisch 2008-02-10

Heerlijk! Bleus spelen Knipoog