• Streaming gitaar liedjes spelen
  • Leer gitaar spelen & gitaarlessen
  • 75.000 leden
Sunday Bloody Sunday
U2

intro (w/ drums)

Riff
-------6-------6-------4-------4--------
-----6---6---6---6---6---6---6---6------
---8-------6-------4-------4------4-----
----------------------------------------
----------------------------------------
----------------------------------------


bridge

--6-----8-----6-----8--------------------
--6-----8-----6-----8--------------------
--4-----6-----4-----6--------------------
-----------------------------------------
-----------------------------------------
-----------------------------------------


chorus

-----------------------------------------
-----------------------------------------
---------6-------------------------------
--8------6------4------4-----------------
--8------
De rest van dit nummer alleen voor Gitaartabs leden! Maak gratis Gitaartabs account aan . 
Gitaar Tabs

Download, print en speel de Tab ♪ U2 - Sunday Bloody Sunday Tab

Meld je aan en print, download of speel binnen 15 sec mee Tab ♫ U2 - Sunday Bloody Sunday Tab.
Reeds 70.000 gitaristen zijn je voorgegaan.

Gratis Aanmelden Gitaartabs

Comments U2 - Sunday Bloody Sunday Tab - tab

kenworth

Kenworth 2011-05-10

tekst