• Streaming gitaar liedjes spelen
  • Leer gitaar spelen & gitaarlessen
  • 80.000 leden
Sunday Bloody Sunday
U2

intro (w/ drums)

Riff
-------6-------6-------4-------4--------
-----6---6---6---6---6---6---6---6------
---8-------6-------4-------4------4-----
----------------------------------------
----------------------------------------
----------------------------------------


bridge

--6-----8-----6-----8--------------------
--6-----8-----6-----8--------------------
--4-----6-----4-----6--------------------
-----------------------------------------
-----------------------------------------
-----------------------------------------


chorus

-----------------------------------------
-----------------------------------------
---------6-------------------------------
--8------6------4------4-----------------
--8------4------4------4-----------------
--6-------------2------2-----------------



harmonics

------------14--13-------------14--13----
-----14--14-------------14--14--------14-
--13-----------------13------------------
-----------------------------------------
-----------------------------------------
-----------------------------------------



solo

-11-11-11-9-9---11
>> Registreer, speel & download <<
Meld nu aan en speel de rest van U2 - Sunday Bloody Sunday Tab

>> Registreer, speel & download <<
-11-11-9-9----------------------------------------
--0--0--0--0--0----0--0--0--0--0------11-11-11-9-9---11-11-11-9-9---
-------------------------------------0--0--0--0--0----0--0--0-0-0---
--------------------------------------------------------------------
--------------------------------------------------------------------
--------------------------------------------------------------------


------------------------------------------------------------
--9--9--9--7--7--7--6--6--6--4--4--4--2--2--4--2--1--2--1---
--0--0--0--0--0--0--0--0--0------------------------------3--
------------------------------------------------------------
------------------------------------------------------------
------------------------------------------------------------



---------------------------------------9--9--8--------------
---2-4-2-4-6-7-6-7-9-7-9-11-9-11----------------9-11-11-----
-3----------------------------------------------------------
------------------------------------------------------------
------------------------------------------------------------
------------------------------------------------------------



More info

Comments U2 - Sunday Bloody Sunday Tab - tab

kenworth

Kenworth 2011-05-10

tekst