• Streaming gitaar liedjes spelen
  • Leer gitaar spelen & gitaarlessen
  • 80.000 leden
Alienated
 

E-|--Riff-1-------------------------------------------------------------------|

B-|---------------------------------------------------------------------------|

G-|----4---4-----2-------4----------------------------------------------------|

D-|--4---4-----4---4-2h4--------------(3-times)-------------------------------|

A-|---------------------------------------------------------------------------|

E-|---------------------------------------------------------------------------|
 
 

E-|--Riff--2--------------(3-times-Riff-1)---Riff-3---------------------------|

B-|--------7---5---4---------------------------------5---5-4---4--------------|

G-|----4-----4---4---4-------------------------4---4---4-----4----------------|

D-|--4---4-----------------------------------4---4--------------------
>> Registreer, speel & download <<
Meld nu aan en speel de rest van Urban Dance Squad - Alienated

>> Registreer, speel & download <<
--------|

A-|---------------------------------------------------------------------------|

E-|---------------------------------------------------------------------------|
 
3 times Riff 1 + Riff 3
3 times Riff 1 + Riff 2
 
    Alienated , alienated, people got me wrong man, I'm 
alienated.....

E-|---------7-------------7---------------------------------------------------|

B-|---------------------------------------------------------------------------|

G-|---6hbv-----6hbv-6hbv---6-----4---------------------------------------------|

D-|---------------------------------------------------------------------------|

A-|---------------------------------------------------------------------------|

E-|---------------------------------------------------------------------------|
   (hbv = half bend with vibrato)

More info