• Streaming gitaar liedjes spelen
  • Leer gitaar spelen & gitaarlessen
  • 80.000 leden
Demagogue


INTRO/VERSE

  ---------------------------------
  ---------------------------------
  ---------------------------------
  --2---x-x-5-5-2---x-x-2---x-x-5--
  --2---x-x-5-5-2---x-x-2---x-x-5--
  --0-------3-3-0-------0-------3--

CHORUS

  ------------------------
>> Registreer, speel & download <<
Meld nu aan en speel de rest van Urban Dance Squad - Demagogue

>> Registreer, speel & download <<
---------------
  ---------------------------------------
  --7-/-9---x-x-x------------------------
  ----------x-x-x--5-/-7---x-x-x--7-/-9--
  --5-/-7------------------x-x-x---------
  -----------------3-/-5----------5-/-7--

SOLO - Yeah, right! Backing is same as intro/verse riff.

More info

Comments Urban Dance Squad - Demagogue - tab

kenworth

Kenworth 2012-08-24

Als je de tekst wil toevoegen kunnen we hem helemaal goedkeuren.
De tab wordt niet alleen completer, maar het speelt ook prettiger.

Alvast bedankt voor het toevoegen.