• Streaming gitaar liedjes spelen
  • Leer gitaar spelen & gitaarlessen
  • 80.000 leden
Good Grief


This song is played in dropped D-tuning.

INTRO - The '4b's must be bent about a quarter to half tone

  --------------------------------------------------------
  --------------------------------------------------------
  ----------------------------------2---------------------
  --4-4-2-4-----4-4-2-4-----4-4-2-4-2-4-2-4-----4-4-2-4---
  --4-4-2-4-----4-4-2-4-----4-4-2-4-0-4-2-4-----4-4-2-4---
  --4-4-2-4-----4-4-2-4-----4-4-2-4---4-2-4-----4-4-2-4---

  ------
>> Registreer, speel & download <<
Meld nu aan en speel de rest van Urban Dance Squad - Good Grief

>> Registreer, speel & download <<
-------
  ----4b-------
  ----4b-------
  ----4b-------
  -------------
  -------------

VERSE

  --------------------------------------------------------
  --------------------------------------------------------
  --------------------------------------------------------
  --------------------3-----------------3-3-x-x-5-5-x-x-x-
  --5-3-5-3-5---5-3-5---5-3-5-3-0-------3-3-x-x-5-5-x-x-x-
  --------------------------------------3-3-----5-5-------

CHORUS - Same riff as intro

More info