• Streaming gitaar liedjes spelen
  • Leer gitaar spelen & gitaarlessen
  • 80.000 leden
  Vader Jacob  Vader Jacob  Slaapt gij nog  Slaapt gij nog
e|--------------------------------------------------------------------------|
B|-------0------------0-------0-----1---3-----0-----1---3-------------------|
G|-0-2-----0---0-2------0---------------------------------------------------|
D|--------------------------------------------------------------------------|
A|--------------------------------------------------------------------------|
E|--------------------------------------------------------------------------|

   Alle
>> Registreer, speel & download <<
Meld nu aan en speel de rest van Vader Jacob - Vader Jacob (beter)

>> Registreer, speel & download <<
 klok ken lui den  Alle klok ken lui den  Bim bam bom  Bim bam bom
e|---0----------------------0-----------------------------------------------|
B|-3------3---1---0-------3-----3----1---0----------------------------------|
G|--------------------0----------------------0----0-------0----0-------0----|
D|----------------------------------------------------0------------0--------|
A|--------------------------------------------------------------------------|
E|--------------------------------------------------------------------------| 

More info

Comments Vader Jacob - Vader Jacob (beter) - tab

darm87

Darm87 2011-06-05

dankje wel!


reneeetje98

Reneeetje98 2010-11-06

makkie ja


Lars Segers

Lars Segers 2010-07-17

Makkie!


kinnaj

Kinnaj 2010-03-23

thnx