• Streaming gitaar liedjes spelen
  • Leer gitaar spelen & gitaarlessen
  • 80.000 leden
Vader Jacob  Vader Jacob  Slaapt gij nog  Slaapt gij nog
e|--------------------------------------------------------------------------|
B|--------------------------------------------------------------------------|
G|--------------------------------------0---------------0-------------------|
D|---0---2--------0---2------2------3--------2------3-----------------------|
A|-3-------3---3--------3---------------------------------------------------|
E|--------------------------------------------------------------------------|

   All
>> Registreer, speel & download <<
Meld nu aan en speel de rest van Vader Jacob - Vader Jacob

>> Registreer, speel & download <<
e klokken luiden  Alle klokken luiden  Bim bam bom  Bim bam bom
e|--------------------------------------------------------------------------|
B|--------------------------------------------------------------------------|
G|-0-2--0---------------0-2--0----------------------------------------------|
D|----------3---2----------------3---2--------------------------------------|
A|-----------------3--------------------3----3-------3----3-------3---------|
E|-----------------------------------------------3------------3-------------| 

More info

Comments Vader Jacob - Vader Jacob - tab

darm87

Darm87 2011-12-10

xd dikke makkie


darm87

Darm87 2011-09-05

Ja deze is perfect, weer wat leuks voor de kinderen op school! Bedankt!


Hesselink

Hesselink 2010-04-06

yeah ik kan um..

 


>>>Steffie<<<

>>>Steffie<<< 2010-04-06

Ik vind de mijne zuiverder klinken :$

Wat vinden jullie?

Greetz...


Hugo14

Hugo14 2010-03-16

  Volgens mij is deze net wat beter.
Heb hem uit mijn muzeik boek via noten omgezet.
probeer maar eens. (capo op 0)
  Vader Jacob  Vader Jacob  Slaapt gij nog  Slaapt gij nog
e|--------------------------------------------------------------------------|
B|-------0------------0-------0-----1---3-----0-----1---3-------------------|
G|-0-2-----0---0-2------0---------------------------------------------------|
D|--------------------------------------------------------------------------|
A|--------------------------------------------------------------------------|
E|--------------------------------------------------------------------------|
 
   Alle klok ken lui den  Alle klok ken lui den  Bim bam bom  Bim bam bom
e|---0----------------------0-----------------------------------------------|
B|-3------3---1---0-------3-----3----1---0----------------------------------|
G|--------------------0----------------------0----0-------0----0-------0----|
D|----------------------------------------------------0------------0--------|
A|--------------------------------------------------------------------------|
E|---------------------------------------------------------------------|


Like a twig.

Like a twig. 2010-03-02

Yay ik kan hem =D  :P


larslauww

Larslauww 2010-02-03

lekker makkelijk :D

en goed uitgelegd