• Streaming gitaar liedjes spelen
  • Leer gitaar spelen & gitaarlessen
  • 75.000 leden
LIMBURGS VOLKSLIED
e-|---------------|--------------|-12-------12--|-------|
B-|-12--------12--|-15-----------|--------------|-15``--|
G-|----14--12-----|----12--12``--|----12-12-----|-------|
D-|---------------|--------------|--------------|-------|
A-|---------------|--------------|--------------|-------|
E-|---------------|--------------|--------------|-------|
E-|---------------|-------------|-----------------12-|-------|
B-|-12---------12-|-15--13-12``-|--------12-14-15----|-15``--|
G-|----14--12-----|-------------|-14--14-------------|-------|
D-|---------------|-------------|--------------------|-------|
A-
De rest van dit nummer alleen voor Gitaartabs leden! Maak gratis Gitaartabs account aan . 
Gitaar Tabs

Download, print en speel de Tab ♪ Vandale38 - Limburgs Volkslied

Meld je aan en print, download of speel binnen 15 sec mee Tab ♫ Vandale38 - Limburgs Volkslied.
Reeds 70.000 gitaristen zijn je voorgegaan.

Gratis Aanmelden Gitaartabs

Meer Vandale38 songs

Vandale38 - Limburgs Volkslied